ISO-10303-21;
HEADER;
/* Generated by software containing ST-Developer
 * from STEP Tools, Inc. (www.steptools.com) 
 */

FILE_DESCRIPTION(
/* description */ ('Alibre Inc.'),
/* implementation_level */ '2;1');

FILE_NAME(
/* name */ 'export-A4F66490-7C57-4713-AE91-0AF644411A80',
/* time_stamp */ '2019-05-22T11:23:34+03:00',
/* author */ (''),
/* organization */ (''),
/* preprocessor_version */ 'ST-DEVELOPER v17',
/* originating_system */ 'Alibre',
/* authorisation */ '');

FILE_SCHEMA (('CONFIG_CONTROL_DESIGN'));
ENDSEC;

DATA;
#10=MECHANICAL_CONTEXT('detailed design',#18,'mechanical');
#11=PRODUCT_RELATED_PRODUCT_CATEGORY('detail','',(#98));
#12=CC_DESIGN_SECURITY_CLASSIFICATION(#14,(#97));
#13=SECURITY_CLASSIFICATION_LEVEL('unclassified');
#14=SECURITY_CLASSIFICATION('name','Security for version',#13);
#15=SHAPE_DEFINITION_REPRESENTATION(#16,#389);
#16=PRODUCT_DEFINITION_SHAPE('','DefinitionDesc',#96);
#17=APPLICATION_PROTOCOL_DEFINITION('AP definition status',
'config_control_design',1994,#18);
#18=APPLICATION_CONTEXT(
'control the configuration of three dimensional design');
#19=DESIGN_CONTEXT('detailed design',#18,'design');
#20=PERSON_AND_ORGANIZATION_ROLE('creator');
#21=PERSON_AND_ORGANIZATION_ROLE('classification_officer');
#22=PERSON_AND_ORGANIZATION_ROLE('creator');
#23=PERSON_AND_ORGANIZATION_ROLE('design_supplier');
#24=PERSON_AND_ORGANIZATION_ROLE('design_owner');
#25=CC_DESIGN_PERSON_AND_ORGANIZATION_ASSIGNMENT(#57,#20,(#96));
#26=CC_DESIGN_PERSON_AND_ORGANIZATION_ASSIGNMENT(#60,#21,(#14));
#27=CC_DESIGN_PERSON_AND_ORGANIZATION_ASSIGNMENT(#61,#22,(#97));
#28=CC_DESIGN_PERSON_AND_ORGANIZATION_ASSIGNMENT(#62,#23,(#97));
#29=CC_DESIGN_PERSON_AND_ORGANIZATION_ASSIGNMENT(#63,#24,(#98));
#30=DATE_TIME_ROLE('creation_date');
#31=DATE_TIME_ROLE('classification_date');
#32=CC_DESIGN_DATE_AND_TIME_ASSIGNMENT(#86,#30,(#96));
#33=CC_DESIGN_DATE_AND_TIME_ASSIGNMENT(#89,#31,(#14));
#34=CC_DESIGN_APPROVAL(#93,(#96));
#35=CC_DESIGN_APPROVAL(#94,(#97));
#36=CC_DESIGN_APPROVAL(#95,(#14));
#37=APPROVAL_PERSON_ORGANIZATION(#56,#93,#64);
#38=APPROVAL_PERSON_ORGANIZATION(#58,#94,#65);
#39=APPROVAL_PERSON_ORGANIZATION(#59,#95,#66);
#40=ORGANIZATION('DEFINITION_APPROVEDBY_ORG_ID',
'DEFINITION_APPROVEDBY_ORG_NAME','DEFINITION_APPROVEDBY_ORG_DESCR');
#41=ORGANIZATION('DEF_CREATOR_ORG_ID','DEF_CREATOR_ORG_NAME',
'DEF_CREATOR_ORG_DESCR');
#42=ORGANIZATION('APPROVEDBY_ORG_ID','APPROVEDBY_ORG_NAME',
'APPROVEDBY_ORG_DESCR');
#43=ORGANIZATION('SECURITY_APPROVEDBY_ORG_ID',
'SECURITY_APPROVEDBY_ORG_NAME','SECURITY_APPROVEDBY_ORG_DESCR');
#44=ORGANIZATION('CLASSOFFICER_ORG_ID','CLASSOFFICER_ORG_NAME',
'CLASSOFFICER_ORG_DESCR');
#45=ORGANIZATION('CREATOR_ORG_ID','CREATOR_ORG_NAME',
'CREATOR_ORG_DESCR');
#46=ORGANIZATION('SUPPLIER_ORG_ID','SUPPLIER_ORG_NAME',
'SUPPLIER_ORG_DESCR');
#47=ORGANIZATION('OWNER_ORG_ID','OWNER_ORG_NAME','OWNER_ORG_DESCR');
#48=PERSON('DEFINITION_approverID','DEFINITION_APPROVEDBY_LASTNAME',
'DEFINITION_APPROVEDBY_FIRSTNAME',$,$,$);
#49=PERSON('DEF_createrID','DEF_CREATOR_LASTNAME',
'DEF_CREATOR_FIRSTNAME',$,$,$);
#50=PERSON('approverID','APPROVEDBY_LASTNAME','APPROVEDBY_FIRSTNAME',$,
$,$);
#51=PERSON('SECURITY_approverID','SECURITY_LASTNAME',
'SECURITY_APPROVEDBY_FIRSTNAME',$,$,$);
#52=PERSON('classifierID','CLASSOFFICER_LASTNAME',
'CLASSOFFICER_FIRSTNAME',$,$,$);
#53=PERSON('createrID','CREATOR_LASTNAME','CREATOR_FIRSTNAME',$,$,$);
#54=PERSON('supplierID','SUPPLIER_LASTNAME','SUPPLIER_FIRSTNAME',$,$,$);
#55=PERSON('ownerID','OWNER_LASTNAME','OWNER_FIRSTNAME',$,$,$);
#56=PERSON_AND_ORGANIZATION(#48,#40);
#57=PERSON_AND_ORGANIZATION(#49,#41);
#58=PERSON_AND_ORGANIZATION(#50,#42);
#59=PERSON_AND_ORGANIZATION(#51,#43);
#60=PERSON_AND_ORGANIZATION(#52,#44);
#61=PERSON_AND_ORGANIZATION(#53,#45);
#62=PERSON_AND_ORGANIZATION(#54,#46);
#63=PERSON_AND_ORGANIZATION(#55,#47);
#64=APPROVAL_ROLE('definition_approval');
#65=APPROVAL_ROLE('version_approval');
#66=APPROVAL_ROLE('security_approval');
#67=APPROVAL_DATE_TIME(#85,#93);
#68=APPROVAL_DATE_TIME(#87,#94);
#69=APPROVAL_DATE_TIME(#88,#95);
#70=COORDINATED_UNIVERSAL_TIME_OFFSET(3,0,.AHEAD.);
#71=COORDINATED_UNIVERSAL_TIME_OFFSET(3,0,.AHEAD.);
#72=COORDINATED_UNIVERSAL_TIME_OFFSET(3,0,.AHEAD.);
#73=COORDINATED_UNIVERSAL_TIME_OFFSET(3,0,.AHEAD.);
#74=COORDINATED_UNIVERSAL_TIME_OFFSET(3,0,.AHEAD.);
#75=LOCAL_TIME(13,28,36.,#70);
#76=LOCAL_TIME(13,28,36.,#71);
#77=LOCAL_TIME(13,28,36.,#72);
#78=LOCAL_TIME(13,28,36.,#73);
#79=LOCAL_TIME(13,28,36.,#74);
#80=CALENDAR_DATE(2019,4,3);
#81=CALENDAR_DATE(2019,4,3);
#82=CALENDAR_DATE(2019,4,3);
#83=CALENDAR_DATE(2019,4,3);
#84=CALENDAR_DATE(2019,4,3);
#85=DATE_AND_TIME(#80,#75);
#86=DATE_AND_TIME(#81,#76);
#87=DATE_AND_TIME(#82,#77);
#88=DATE_AND_TIME(#83,#78);
#89=DATE_AND_TIME(#84,#79);
#90=APPROVAL_STATUS('not_yet_approved');
#91=APPROVAL_STATUS('not_yet_approved');
#92=APPROVAL_STATUS('not_yet_approved');
#93=APPROVAL(#90,'defintion approval');
#94=APPROVAL(#91,'version approval');
#95=APPROVAL(#92,'security approval');
#96=PRODUCT_DEFINITION('DefinitionID','DefinitionDesc',#97,#19);
#97=PRODUCT_DEFINITION_FORMATION_WITH_SPECIFIED_SOURCE(
'PRODUCT_VERSION_ID','PRODUCT_VERSION_DESCR',#98,.NOT_KNOWN.);
#98=PRODUCT('ID_1','O 3000 - 050','',(#10));
#99=(
LENGTH_UNIT()
NAMED_UNIT(*)
SI_UNIT(.CENTI.,.METRE.)
);
#100=(
NAMED_UNIT(*)
PLANE_ANGLE_UNIT()
SI_UNIT($,.RADIAN.)
);
#101=(
NAMED_UNIT(*)
SI_UNIT($,.STERADIAN.)
SOLID_ANGLE_UNIT()
);
#102=UNCERTAINTY_MEASURE_WITH_UNIT(LENGTH_MEASURE(1.E-6),#99,
'DISTANCE_ACCURACY_VALUE',
'Maximum model space distance between geometric entities at asserted c
onnectivities');
#103=(
GEOMETRIC_REPRESENTATION_CONTEXT(3)
GLOBAL_UNCERTAINTY_ASSIGNED_CONTEXT((#102))
GLOBAL_UNIT_ASSIGNED_CONTEXT((#101,#100,#99))
REPRESENTATION_CONTEXT('ID1','3D')
);
#104=PLANE('',#287);
#105=PLANE('',#289);
#106=PLANE('',#290);
#107=TOROIDAL_SURFACE('',#276,3.15,0.2);
#108=TOROIDAL_SURFACE('',#279,3.15,0.2);
#109=CYLINDRICAL_SURFACE('',#266,0.25);
#110=CYLINDRICAL_SURFACE('',#270,0.33235);
#111=CYLINDRICAL_SURFACE('',#274,0.33235);
#112=CYLINDRICAL_SURFACE('',#282,3.15);
#113=CYLINDRICAL_SURFACE('',#284,2.25);
#114=CIRCLE('',#265,0.25);
#115=CIRCLE('',#267,0.25);
#116=CIRCLE('',#269,0.33235);
#117=CIRCLE('',#271,0.33235);
#118=CIRCLE('',#273,0.33235);
#119=CIRCLE('',#275,0.33235);
#120=CIRCLE('',#277,3.15);
#121=CIRCLE('',#278,3.15);
#122=CIRCLE('',#280,3.15);
#123=CIRCLE('',#281,3.15);
#124=CIRCLE('',#283,3.15);
#125=CIRCLE('',#285,2.25);
#126=CIRCLE('',#286,2.25);
#127=CIRCLE('',#288,3.15);
#128=EDGE_CURVE('',#202,#202,#114,.T.);
#129=EDGE_CURVE('',#203,#203,#115,.T.);
#130=EDGE_CURVE('',#205,#205,#116,.T.);
#131=EDGE_CURVE('',#206,#206,#117,.T.);
#132=EDGE_CURVE('',#208,#208,#118,.T.);
#133=EDGE_CURVE('',#209,#209,#119,.T.);
#134=EDGE_CURVE('',#210,#210,#120,.T.);
#135=EDGE_CURVE('',#211,#211,#121,.T.);
#136=EDGE_CURVE('',#212,#212,#122,.T.);
#137=EDGE_CURVE('',#213,#213,#123,.T.);
#138=EDGE_CURVE('',#214,#214,#124,.T.);
#139=EDGE_CURVE('',#215,#215,#125,.T.);
#140=EDGE_CURVE('',#216,#216,#126,.T.);
#141=EDGE_CURVE('',#217,#217,#127,.T.);
#142=ORIENTED_EDGE('',*,*,#128,.T.);
#143=ORIENTED_EDGE('',*,*,#128,.F.);
#144=ORIENTED_EDGE('',*,*,#129,.F.);
#145=ORIENTED_EDGE('',*,*,#130,.T.);
#146=ORIENTED_EDGE('',*,*,#130,.F.);
#147=ORIENTED_EDGE('',*,*,#131,.F.);
#148=ORIENTED_EDGE('',*,*,#132,.T.);
#149=ORIENTED_EDGE('',*,*,#132,.F.);
#150=ORIENTED_EDGE('',*,*,#133,.F.);
#151=ORIENTED_EDGE('',*,*,#134,.F.);
#152=ORIENTED_EDGE('',*,*,#135,.F.);
#153=ORIENTED_EDGE('',*,*,#136,.F.);
#154=ORIENTED_EDGE('',*,*,#137,.F.);
#155=ORIENTED_EDGE('',*,*,#138,.T.);
#156=ORIENTED_EDGE('',*,*,#137,.T.);
#157=ORIENTED_EDGE('',*,*,#136,.T.);
#158=ORIENTED_EDGE('',*,*,#135,.T.);
#159=ORIENTED_EDGE('',*,*,#139,.T.);
#160=ORIENTED_EDGE('',*,*,#140,.F.);
#161=ORIENTED_EDGE('',*,*,#139,.F.);
#162=ORIENTED_EDGE('',*,*,#134,.T.);
#163=ORIENTED_EDGE('',*,*,#141,.T.);
#164=ORIENTED_EDGE('',*,*,#140,.T.);
#165=ORIENTED_EDGE('',*,*,#141,.F.);
#166=ORIENTED_EDGE('',*,*,#129,.T.);
#167=ORIENTED_EDGE('',*,*,#131,.T.);
#168=ORIENTED_EDGE('',*,*,#133,.T.);
#169=ORIENTED_EDGE('',*,*,#138,.F.);
#170=EDGE_LOOP('',(#142));
#171=EDGE_LOOP('',(#143));
#172=EDGE_LOOP('',(#144));
#173=EDGE_LOOP('',(#145));
#174=EDGE_LOOP('',(#146));
#175=EDGE_LOOP('',(#147));
#176=EDGE_LOOP('',(#148));
#177=EDGE_LOOP('',(#149));
#178=EDGE_LOOP('',(#150));
#179=EDGE_LOOP('',(#151));
#180=EDGE_LOOP('',(#152));
#181=EDGE_LOOP('',(#153));
#182=EDGE_LOOP('',(#154));
#183=EDGE_LOOP('',(#155));
#184=EDGE_LOOP('',(#156));
#185=EDGE_LOOP('',(#157));
#186=EDGE_LOOP('',(#158));
#187=EDGE_LOOP('',(#159));
#188=EDGE_LOOP('',(#160));
#189=EDGE_LOOP('',(#161));
#190=EDGE_LOOP('',(#162));
#191=EDGE_LOOP('',(#163));
#192=EDGE_LOOP('',(#164));
#193=EDGE_LOOP('',(#165));
#194=EDGE_LOOP('',(#166));
#195=EDGE_LOOP('',(#167));
#196=EDGE_LOOP('',(#168));
#197=EDGE_LOOP('',(#169));
#198=VERTEX_LOOP('',#201);
#199=VERTEX_LOOP('',#204);
#200=VERTEX_LOOP('',#207);
#201=VERTEX_POINT('',#292);
#202=VERTEX_POINT('',#294);
#203=VERTEX_POINT('',#297);
#204=VERTEX_POINT('',#299);
#205=VERTEX_POINT('',#301);
#206=VERTEX_POINT('',#304);
#207=VERTEX_POINT('',#306);
#208=VERTEX_POINT('',#308);
#209=VERTEX_POINT('',#311);
#210=VERTEX_POINT('',#314);
#211=VERTEX_POINT('',#316);
#212=VERTEX_POINT('',#319);
#213=VERTEX_POINT('',#321);
#214=VERTEX_POINT('',#324);
#215=VERTEX_POINT('',#327);
#216=VERTEX_POINT('',#329);
#217=VERTEX_POINT('',#332);
#218=FACE_BOUND('',#198,.T.);
#219=FACE_BOUND('',#170,.T.);
#220=FACE_BOUND('',#171,.T.);
#221=FACE_BOUND('',#172,.T.);
#222=FACE_BOUND('',#199,.T.);
#223=FACE_BOUND('',#173,.T.);
#224=FACE_BOUND('',#174,.T.);
#225=FACE_BOUND('',#175,.T.);
#226=FACE_BOUND('',#200,.T.);
#227=FACE_BOUND('',#176,.T.);
#228=FACE_BOUND('',#177,.T.);
#229=FACE_BOUND('',#178,.T.);
#230=FACE_BOUND('',#179,.T.);
#231=FACE_BOUND('',#180,.T.);
#232=FACE_BOUND('',#181,.T.);
#233=FACE_BOUND('',#182,.T.);
#234=FACE_BOUND('',#183,.T.);
#235=FACE_BOUND('',#184,.T.);
#236=FACE_BOUND('',#185,.T.);
#237=FACE_BOUND('',#186,.T.);
#238=FACE_BOUND('',#187,.T.);
#239=FACE_BOUND('',#188,.T.);
#240=FACE_BOUND('',#189,.T.);
#241=FACE_BOUND('',#190,.T.);
#242=FACE_BOUND('',#191,.T.);
#243=FACE_BOUND('',#192,.T.);
#244=FACE_BOUND('',#193,.T.);
#245=FACE_BOUND('',#194,.T.);
#246=FACE_BOUND('',#195,.T.);
#247=FACE_BOUND('',#196,.T.);
#248=FACE_BOUND('',#197,.T.);
#249=ADVANCED_FACE('',(#218,#219),#384,.F.);
#250=ADVANCED_FACE('',(#220,#221),#109,.F.);
#251=ADVANCED_FACE('',(#222,#223),#385,.F.);
#252=ADVANCED_FACE('',(#224,#225),#110,.F.);
#253=ADVANCED_FACE('',(#226,#227),#386,.F.);
#254=ADVANCED_FACE('',(#228,#229),#111,.F.);
#255=ADVANCED_FACE('',(#230,#231),#107,.F.);
#256=ADVANCED_FACE('',(#232,#233),#108,.F.);
#257=ADVANCED_FACE('',(#234,#235),#112,.T.);
#258=ADVANCED_FACE('',(#236,#237),#112,.T.);
#259=ADVANCED_FACE('',(#238,#239),#113,.T.);
#260=ADVANCED_FACE('',(#240),#104,.T.);
#261=ADVANCED_FACE('',(#241,#242),#112,.T.);
#262=ADVANCED_FACE('',(#243,#244),#105,.T.);
#263=ADVANCED_FACE('',(#245,#246,#247,#248),#106,.F.);
#264=AXIS2_PLACEMENT_3D('',#291,#335,#336);
#265=AXIS2_PLACEMENT_3D('',#293,#337,#338);
#266=AXIS2_PLACEMENT_3D('',#295,#339,#340);
#267=AXIS2_PLACEMENT_3D('',#296,#341,#342);
#268=AXIS2_PLACEMENT_3D('',#298,#343,#344);
#269=AXIS2_PLACEMENT_3D('',#300,#345,#346);
#270=AXIS2_PLACEMENT_3D('',#302,#347,#348);
#271=AXIS2_PLACEMENT_3D('',#303,#349,#350);
#272=AXIS2_PLACEMENT_3D('',#305,#351,#352);
#273=AXIS2_PLACEMENT_3D('',#307,#353,#354);
#274=AXIS2_PLACEMENT_3D('',#309,#355,#356);
#275=AXIS2_PLACEMENT_3D('',#310,#357,#358);
#276=AXIS2_PLACEMENT_3D('',#312,#359,$);
#277=AXIS2_PLACEMENT_3D('',#313,#360,#361);
#278=AXIS2_PLACEMENT_3D('',#315,#362,#363);
#279=AXIS2_PLACEMENT_3D('',#317,#364,$);
#280=AXIS2_PLACEMENT_3D('',#318,#365,#366);
#281=AXIS2_PLACEMENT_3D('',#320,#367,#368);
#282=AXIS2_PLACEMENT_3D('',#322,#369,#370);
#283=AXIS2_PLACEMENT_3D('',#323,#371,#372);
#284=AXIS2_PLACEMENT_3D('',#325,#373,#374);
#285=AXIS2_PLACEMENT_3D('',#326,#375,#376);
#286=AXIS2_PLACEMENT_3D('',#328,#377,#378);
#287=AXIS2_PLACEMENT_3D('',#330,#379,$);
#288=AXIS2_PLACEMENT_3D('',#331,#380,#381);
#289=AXIS2_PLACEMENT_3D('',#333,#382,$);
#290=AXIS2_PLACEMENT_3D('',#334,#383,$);
#291=CARTESIAN_POINT('',(0.,2.,0.));
#292=CARTESIAN_POINT('',(0.,2.15021515475689,0.));
#293=CARTESIAN_POINT('',(0.,2.,0.));
#294=CARTESIAN_POINT('',(0.,2.,0.25));
#295=CARTESIAN_POINT('',(0.,0.,0.));
#296=CARTESIAN_POINT('',(0.,0.,0.));
#297=CARTESIAN_POINT('',(0.,0.,0.25));
#298=CARTESIAN_POINT('',(1.7,0.5,0.));
#299=CARTESIAN_POINT('',(1.7,0.699696026733809,0.));
#300=CARTESIAN_POINT('',(1.7,0.5,0.));
#301=CARTESIAN_POINT('',(1.7,0.5,0.33235));
#302=CARTESIAN_POINT('',(1.7,0.,0.));
#303=CARTESIAN_POINT('',(1.7,0.,0.));
#304=CARTESIAN_POINT('',(1.7,0.,0.33235));
#305=CARTESIAN_POINT('',(-1.7,0.5,0.));
#306=CARTESIAN_POINT('',(-1.7,0.699696026733809,0.));
#307=CARTESIAN_POINT('',(-1.7,0.5,0.));
#308=CARTESIAN_POINT('',(-1.7,0.5,0.33235));
#309=CARTESIAN_POINT('',(-1.7,0.,0.));
#310=CARTESIAN_POINT('',(-1.7,0.,0.));
#311=CARTESIAN_POINT('',(-1.7,0.,0.33235));
#312=CARTESIAN_POINT('',(0.,13.6,0.));
#313=CARTESIAN_POINT('',(0.,13.8,0.));
#314=CARTESIAN_POINT('',(-3.15,13.8,3.85763741731416E-16));
#315=CARTESIAN_POINT('',(0.,13.4,0.));
#316=CARTESIAN_POINT('',(-3.15,13.4,-3.85763741731416E-16));
#317=CARTESIAN_POINT('',(0.,1.8,0.));
#318=CARTESIAN_POINT('',(0.,2.,0.));
#319=CARTESIAN_POINT('',(-3.15,2.,3.85763741731416E-16));
#320=CARTESIAN_POINT('',(0.,1.6,0.));
#321=CARTESIAN_POINT('',(-3.15,1.6,-3.85763741731416E-16));
#322=CARTESIAN_POINT('',(0.,0.,0.));
#323=CARTESIAN_POINT('',(0.,0.,0.));
#324=CARTESIAN_POINT('',(3.15,0.,0.));
#325=CARTESIAN_POINT('',(0.,15.4,0.));
#326=CARTESIAN_POINT('',(0.,20.5,0.));
#327=CARTESIAN_POINT('',(2.25,20.5,0.));
#328=CARTESIAN_POINT('',(0.,15.4,0.));
#329=CARTESIAN_POINT('',(2.25,15.4,0.));
#330=CARTESIAN_POINT('',(0.,20.5,0.));
#331=CARTESIAN_POINT('',(0.,15.4,0.));
#332=CARTESIAN_POINT('',(3.15,15.4,0.));
#333=CARTESIAN_POINT('',(0.,15.4,0.));
#334=CARTESIAN_POINT('',(0.,0.,0.));
#335=DIRECTION('',(0.,-1.,0.));
#336=DIRECTION('',(0.,0.,0.25));
#337=DIRECTION('',(0.,-1.,0.));
#338=DIRECTION('',(0.,0.,0.25));
#339=DIRECTION('',(0.,1.,0.));
#340=DIRECTION('',(0.,0.,0.25));
#341=DIRECTION('',(0.,1.,0.));
#342=DIRECTION('',(0.,0.,0.25));
#343=DIRECTION('',(0.,-1.,0.));
#344=DIRECTION('',(0.,0.,0.33235));
#345=DIRECTION('',(0.,-1.,0.));
#346=DIRECTION('',(0.,0.,0.33235));
#347=DIRECTION('',(0.,1.,0.));
#348=DIRECTION('',(0.,0.,0.33235));
#349=DIRECTION('',(0.,1.,0.));
#350=DIRECTION('',(0.,0.,0.33235));
#351=DIRECTION('',(0.,-1.,0.));
#352=DIRECTION('',(0.,0.,0.33235));
#353=DIRECTION('',(0.,-1.,0.));
#354=DIRECTION('',(0.,0.,0.33235));
#355=DIRECTION('',(0.,1.,0.));
#356=DIRECTION('',(0.,0.,0.33235));
#357=DIRECTION('',(0.,1.,0.));
#358=DIRECTION('',(0.,0.,0.33235));
#359=DIRECTION('',(0.,1.,0.));
#360=DIRECTION('',(0.,1.,0.));
#361=DIRECTION('',(3.15,0.,0.));
#362=DIRECTION('',(0.,-1.,0.));
#363=DIRECTION('',(3.15,0.,0.));
#364=DIRECTION('',(0.,1.,0.));
#365=DIRECTION('',(0.,1.,0.));
#366=DIRECTION('',(3.15,0.,0.));
#367=DIRECTION('',(0.,-1.,0.));
#368=DIRECTION('',(3.15,0.,0.));
#369=DIRECTION('',(0.,1.,0.));
#370=DIRECTION('',(3.15,0.,0.));
#371=DIRECTION('',(0.,1.,0.));
#372=DIRECTION('',(3.15,0.,0.));
#373=DIRECTION('',(0.,1.,0.));
#374=DIRECTION('',(2.25,0.,0.));
#375=DIRECTION('',(0.,-1.,0.));
#376=DIRECTION('',(2.25,0.,0.));
#377=DIRECTION('',(0.,-1.,0.));
#378=DIRECTION('',(2.25,0.,0.));
#379=DIRECTION('',(0.,1.,0.));
#380=DIRECTION('',(0.,-1.,0.));
#381=DIRECTION('',(3.15,0.,0.));
#382=DIRECTION('',(0.,1.,0.));
#383=DIRECTION('',(0.,1.,0.));
#384=CONICAL_SURFACE('',#264,0.25,1.02974425867665);
#385=CONICAL_SURFACE('',#268,0.33235,1.02974425867665);
#386=CONICAL_SURFACE('',#272,0.33235,1.02974425867665);
#387=CLOSED_SHELL('',(#249,#250,#251,#252,#253,#254,#255,#256,#257,#258,
#259,#260,#261,#262,#263));
#388=MANIFOLD_SOLID_BREP('',#387);
#389=ADVANCED_BREP_SHAPE_REPRESENTATION('',(#388),#103);
ENDSEC;
END-ISO-10303-21;
