ISO-10303-21;
HEADER;
/* Generated by software containing ST-Developer
 * from STEP Tools, Inc. (www.steptools.com) 
 */

FILE_DESCRIPTION(
/* description */ ('STEP AP203'),
/* implementation_level */ '2;1');

FILE_NAME(
/* name */ 
'C:\\Users\\Do\X2\011F\X0\an\\Desktop\\cadenas d\X\FCzeltmeler 1007201
9\\K 19\\K19_100_A.stp',
/* time_stamp */ '2019-07-10T15:36:59+03:00',
/* author */ ('Do\X2\011F\X0\an'),
/* organization */ (''),
/* preprocessor_version */ 'ST-DEVELOPER v18',
/* originating_system */ 'Autodesk Inventor 2020',
/* authorisation */ '');

FILE_SCHEMA (('AUTOMOTIVE_DESIGN { 1 0 10303 214 3 1 1 }'));
ENDSEC;

DATA;
#10=MECHANICAL_DESIGN_GEOMETRIC_PRESENTATION_REPRESENTATION('',(#13),#518);
#11=SHAPE_REPRESENTATION_RELATIONSHIP('SRR','None',#525,#12);
#12=ADVANCED_BREP_SHAPE_REPRESENTATION('',(#14),#517);
#13=STYLED_ITEM('',(#534),#14);
#14=MANIFOLD_SOLID_BREP('Solid2',#270);
#15=FACE_BOUND('',#76,.T.);
#16=FACE_BOUND('',#77,.T.);
#17=FACE_BOUND('',#79,.T.);
#18=PLANE('',#330);
#19=PLANE('',#331);
#20=PLANE('',#332);
#21=PLANE('',#333);
#22=CONICAL_SURFACE('',#300,3.025,0.785398163397445);
#23=CONICAL_SURFACE('',#308,2.5,1.02974425867665);
#24=CONICAL_SURFACE('',#309,9.5,0.785398163397443);
#25=CONICAL_SURFACE('',#314,8.99999999999998,0.785398163397471);
#26=LINE('',#448,#35);
#27=LINE('',#458,#36);
#28=LINE('',#467,#37);
#29=LINE('',#470,#38);
#30=LINE('',#477,#39);
#31=LINE('',#487,#40);
#32=LINE('',#506,#41);
#33=LINE('',#508,#42);
#34=LINE('',#510,#43);
#35=VECTOR('',#352,2.);
#36=VECTOR('',#363,3.025);
#37=VECTOR('',#374,2.5);
#38=VECTOR('',#377,2.5);
#39=VECTOR('',#384,9.5);
#40=VECTOR('',#395,8.99999999999998);
#41=VECTOR('',#418,4.);
#42=VECTOR('',#421,9.5);
#43=VECTOR('',#424,9.49999999999999);
#44=CYLINDRICAL_SURFACE('',#295,2.);
#45=CYLINDRICAL_SURFACE('',#305,2.5);
#46=CYLINDRICAL_SURFACE('',#325,4.);
#47=CYLINDRICAL_SURFACE('',#328,9.5);
#48=CYLINDRICAL_SURFACE('',#329,9.49999999999999);
#49=FACE_OUTER_BOUND('',#64,.T.);
#50=FACE_OUTER_BOUND('',#65,.T.);
#51=FACE_OUTER_BOUND('',#66,.T.);
#52=FACE_OUTER_BOUND('',#67,.T.);
#53=FACE_OUTER_BOUND('',#68,.T.);
#54=FACE_OUTER_BOUND('',#69,.T.);
#55=FACE_OUTER_BOUND('',#70,.T.);
#56=FACE_OUTER_BOUND('',#71,.T.);
#57=FACE_OUTER_BOUND('',#72,.T.);
#58=FACE_OUTER_BOUND('',#73,.T.);
#59=FACE_OUTER_BOUND('',#74,.T.);
#60=FACE_OUTER_BOUND('',#75,.T.);
#61=FACE_OUTER_BOUND('',#78,.T.);
#62=FACE_OUTER_BOUND('',#80,.T.);
#63=FACE_OUTER_BOUND('',#81,.T.);
#64=EDGE_LOOP('',(#177,#178,#179,#180,#181));
#65=EDGE_LOOP('',(#182,#183,#184,#185,#186,#187));
#66=EDGE_LOOP('',(#188,#189,#190,#191,#192,#193));
#67=EDGE_LOOP('',(#194,#195,#196,#197,#198,#199));
#68=EDGE_LOOP('',(#200,#201,#202,#203));
#69=EDGE_LOOP('',(#204,#205,#206,#207,#208,#209));
#70=EDGE_LOOP('',(#210,#211,#212,#213,#214,#215));
#71=EDGE_LOOP('',(#216,#217,#218,#219,#220,#221));
#72=EDGE_LOOP('',(#222,#223,#224,#225,#226,#227));
#73=EDGE_LOOP('',(#228,#229,#230,#231,#232,#233));
#74=EDGE_LOOP('',(#234,#235,#236,#237,#238));
#75=EDGE_LOOP('',(#239,#240));
#76=EDGE_LOOP('',(#241,#242));
#77=EDGE_LOOP('',(#243,#244));
#78=EDGE_LOOP('',(#245,#246));
#79=EDGE_LOOP('',(#247,#248));
#80=EDGE_LOOP('',(#249,#250));
#81=EDGE_LOOP('',(#251,#252));
#82=CIRCLE('',#291,9.5);
#83=CIRCLE('',#292,1.);
#84=CIRCLE('',#293,9.5);
#85=CIRCLE('',#294,9.5);
#86=CIRCLE('',#296,2.);
#87=CIRCLE('',#297,2.);
#88=CIRCLE('',#298,2.);
#89=CIRCLE('',#299,2.);
#90=CIRCLE('',#301,2.5);
#91=CIRCLE('',#302,2.5);
#92=CIRCLE('',#303,3.025);
#93=CIRCLE('',#304,3.025);
#94=CIRCLE('',#306,2.5);
#95=CIRCLE('',#307,2.5);
#96=CIRCLE('',#310,9.5);
#97=CIRCLE('',#311,9.5);
#98=CIRCLE('',#312,8.99999999999998);
#99=CIRCLE('',#313,8.99999999999998);
#100=CIRCLE('',#315,9.49999999999999);
#101=CIRCLE('',#316,9.49999999999999);
#102=CIRCLE('',#317,8.99999999999998);
#103=CIRCLE('',#318,8.99999999999998);
#104=CIRCLE('',#320,3.);
#105=CIRCLE('',#321,3.);
#106=CIRCLE('',#322,1.);
#107=CIRCLE('',#323,4.);
#108=CIRCLE('',#324,4.);
#109=CIRCLE('',#326,3.99999999999999);
#110=CIRCLE('',#327,3.99999999999999);
#111=VERTEX_POINT('',#435);
#112=VERTEX_POINT('',#437);
#113=VERTEX_POINT('',#439);
#114=VERTEX_POINT('',#443);
#115=VERTEX_POINT('',#444);
#116=VERTEX_POINT('',#447);
#117=VERTEX_POINT('',#449);
#118=VERTEX_POINT('',#453);
#119=VERTEX_POINT('',#454);
#120=VERTEX_POINT('',#457);
#121=VERTEX_POINT('',#459);
#122=VERTEX_POINT('',#463);
#123=VERTEX_POINT('',#464);
#124=VERTEX_POINT('',#469);
#125=VERTEX_POINT('',#472);
#126=VERTEX_POINT('',#473);
#127=VERTEX_POINT('',#476);
#128=VERTEX_POINT('',#478);
#129=VERTEX_POINT('',#482);
#130=VERTEX_POINT('',#483);
#131=VERTEX_POINT('',#486);
#132=VERTEX_POINT('',#488);
#133=VERTEX_POINT('',#492);
#134=VERTEX_POINT('',#493);
#135=VERTEX_POINT('',#496);
#136=VERTEX_POINT('',#498);
#137=VERTEX_POINT('',#502);
#138=VERTEX_POINT('',#503);
#139=EDGE_CURVE('',#111,#111,#82,.T.);
#140=EDGE_CURVE('',#111,#112,#83,.T.);
#141=EDGE_CURVE('',#112,#113,#84,.T.);
#142=EDGE_CURVE('',#113,#112,#85,.T.);
#143=EDGE_CURVE('',#114,#115,#86,.T.);
#144=EDGE_CURVE('',#115,#114,#87,.T.);
#145=EDGE_CURVE('',#115,#116,#26,.T.);
#146=EDGE_CURVE('',#116,#117,#88,.T.);
#147=EDGE_CURVE('',#117,#116,#89,.T.);
#148=EDGE_CURVE('',#118,#119,#90,.T.);
#149=EDGE_CURVE('',#119,#118,#91,.T.);
#150=EDGE_CURVE('',#119,#120,#27,.T.);
#151=EDGE_CURVE('',#120,#121,#92,.T.);
#152=EDGE_CURVE('',#121,#120,#93,.T.);
#153=EDGE_CURVE('',#122,#123,#94,.T.);
#154=EDGE_CURVE('',#123,#122,#95,.T.);
#155=EDGE_CURVE('',#123,#119,#28,.T.);
#156=EDGE_CURVE('',#124,#123,#29,.T.);
#157=EDGE_CURVE('',#125,#126,#96,.T.);
#158=EDGE_CURVE('',#126,#125,#97,.T.);
#159=EDGE_CURVE('',#126,#127,#30,.T.);
#160=EDGE_CURVE('',#128,#127,#98,.T.);
#161=EDGE_CURVE('',#127,#128,#99,.T.);
#162=EDGE_CURVE('',#129,#130,#100,.T.);
#163=EDGE_CURVE('',#130,#129,#101,.T.);
#164=EDGE_CURVE('',#130,#131,#31,.T.);
#165=EDGE_CURVE('',#132,#131,#102,.T.);
#166=EDGE_CURVE('',#131,#132,#103,.T.);
#167=EDGE_CURVE('',#133,#134,#104,.T.);
#168=EDGE_CURVE('',#134,#133,#105,.T.);
#169=EDGE_CURVE('',#134,#135,#106,.T.);
#170=EDGE_CURVE('',#136,#135,#107,.T.);
#171=EDGE_CURVE('',#135,#136,#108,.T.);
#172=EDGE_CURVE('',#137,#138,#109,.T.);
#173=EDGE_CURVE('',#138,#137,#110,.T.);
#174=EDGE_CURVE('',#138,#136,#32,.T.);
#175=EDGE_CURVE('',#112,#126,#33,.T.);
#176=EDGE_CURVE('',#129,#111,#34,.T.);
#177=ORIENTED_EDGE('',*,*,#139,.F.);
#178=ORIENTED_EDGE('',*,*,#140,.T.);
#179=ORIENTED_EDGE('',*,*,#141,.T.);
#180=ORIENTED_EDGE('',*,*,#142,.T.);
#181=ORIENTED_EDGE('',*,*,#140,.F.);
#182=ORIENTED_EDGE('',*,*,#143,.F.);
#183=ORIENTED_EDGE('',*,*,#144,.F.);
#184=ORIENTED_EDGE('',*,*,#145,.T.);
#185=ORIENTED_EDGE('',*,*,#146,.T.);
#186=ORIENTED_EDGE('',*,*,#147,.T.);
#187=ORIENTED_EDGE('',*,*,#145,.F.);
#188=ORIENTED_EDGE('',*,*,#148,.F.);
#189=ORIENTED_EDGE('',*,*,#149,.F.);
#190=ORIENTED_EDGE('',*,*,#150,.T.);
#191=ORIENTED_EDGE('',*,*,#151,.T.);
#192=ORIENTED_EDGE('',*,*,#152,.T.);
#193=ORIENTED_EDGE('',*,*,#150,.F.);
#194=ORIENTED_EDGE('',*,*,#153,.F.);
#195=ORIENTED_EDGE('',*,*,#154,.F.);
#196=ORIENTED_EDGE('',*,*,#155,.T.);
#197=ORIENTED_EDGE('',*,*,#149,.T.);
#198=ORIENTED_EDGE('',*,*,#148,.T.);
#199=ORIENTED_EDGE('',*,*,#155,.F.);
#200=ORIENTED_EDGE('',*,*,#156,.T.);
#201=ORIENTED_EDGE('',*,*,#154,.T.);
#202=ORIENTED_EDGE('',*,*,#153,.T.);
#203=ORIENTED_EDGE('',*,*,#156,.F.);
#204=ORIENTED_EDGE('',*,*,#157,.F.);
#205=ORIENTED_EDGE('',*,*,#158,.F.);
#206=ORIENTED_EDGE('',*,*,#159,.T.);
#207=ORIENTED_EDGE('',*,*,#160,.F.);
#208=ORIENTED_EDGE('',*,*,#161,.F.);
#209=ORIENTED_EDGE('',*,*,#159,.F.);
#210=ORIENTED_EDGE('',*,*,#162,.F.);
#211=ORIENTED_EDGE('',*,*,#163,.F.);
#212=ORIENTED_EDGE('',*,*,#164,.T.);
#213=ORIENTED_EDGE('',*,*,#165,.F.);
#214=ORIENTED_EDGE('',*,*,#166,.F.);
#215=ORIENTED_EDGE('',*,*,#164,.F.);
#216=ORIENTED_EDGE('',*,*,#167,.F.);
#217=ORIENTED_EDGE('',*,*,#168,.F.);
#218=ORIENTED_EDGE('',*,*,#169,.T.);
#219=ORIENTED_EDGE('',*,*,#170,.F.);
#220=ORIENTED_EDGE('',*,*,#171,.F.);
#221=ORIENTED_EDGE('',*,*,#169,.F.);
#222=ORIENTED_EDGE('',*,*,#172,.F.);
#223=ORIENTED_EDGE('',*,*,#173,.F.);
#224=ORIENTED_EDGE('',*,*,#174,.T.);
#225=ORIENTED_EDGE('',*,*,#170,.T.);
#226=ORIENTED_EDGE('',*,*,#171,.T.);
#227=ORIENTED_EDGE('',*,*,#174,.F.);
#228=ORIENTED_EDGE('',*,*,#142,.F.);
#229=ORIENTED_EDGE('',*,*,#141,.F.);
#230=ORIENTED_EDGE('',*,*,#175,.T.);
#231=ORIENTED_EDGE('',*,*,#158,.T.);
#232=ORIENTED_EDGE('',*,*,#157,.T.);
#233=ORIENTED_EDGE('',*,*,#175,.F.);
#234=ORIENTED_EDGE('',*,*,#162,.T.);
#235=ORIENTED_EDGE('',*,*,#163,.T.);
#236=ORIENTED_EDGE('',*,*,#176,.T.);
#237=ORIENTED_EDGE('',*,*,#139,.T.);
#238=ORIENTED_EDGE('',*,*,#176,.F.);
#239=ORIENTED_EDGE('',*,*,#165,.T.);
#240=ORIENTED_EDGE('',*,*,#166,.T.);
#241=ORIENTED_EDGE('',*,*,#147,.F.);
#242=ORIENTED_EDGE('',*,*,#146,.F.);
#243=ORIENTED_EDGE('',*,*,#152,.F.);
#244=ORIENTED_EDGE('',*,*,#151,.F.);
#245=ORIENTED_EDGE('',*,*,#160,.T.);
#246=ORIENTED_EDGE('',*,*,#161,.T.);
#247=ORIENTED_EDGE('',*,*,#172,.T.);
#248=ORIENTED_EDGE('',*,*,#173,.T.);
#249=ORIENTED_EDGE('',*,*,#167,.T.);
#250=ORIENTED_EDGE('',*,*,#168,.T.);
#251=ORIENTED_EDGE('',*,*,#143,.T.);
#252=ORIENTED_EDGE('',*,*,#144,.T.);
#253=TOROIDAL_SURFACE('',#290,9.5,1.);
#254=TOROIDAL_SURFACE('',#319,3.,1.);
#255=ADVANCED_FACE('',(#49),#253,.F.);
#256=ADVANCED_FACE('',(#50),#44,.F.);
#257=ADVANCED_FACE('',(#51),#22,.F.);
#258=ADVANCED_FACE('',(#52),#45,.F.);
#259=ADVANCED_FACE('',(#53),#23,.F.);
#260=ADVANCED_FACE('',(#54),#24,.T.);
#261=ADVANCED_FACE('',(#55),#25,.T.);
#262=ADVANCED_FACE('',(#56),#254,.T.);
#263=ADVANCED_FACE('',(#57),#46,.T.);
#264=ADVANCED_FACE('',(#58),#47,.T.);
#265=ADVANCED_FACE('',(#59),#48,.T.);
#266=ADVANCED_FACE('',(#60,#15,#16),#18,.T.);
#267=ADVANCED_FACE('',(#61,#17),#19,.T.);
#268=ADVANCED_FACE('',(#62),#20,.T.);
#269=ADVANCED_FACE('',(#63),#21,.T.);
#270=CLOSED_SHELL('',(#255,#256,#257,#258,#259,#260,#261,#262,#263,#264,
#265,#266,#267,#268,#269));
#271=DERIVED_UNIT_ELEMENT(#273,1.);
#272=DERIVED_UNIT_ELEMENT(#520,3.);
#273=(
MASS_UNIT()
NAMED_UNIT(*)
SI_UNIT($,.GRAM.)
);
#274=DERIVED_UNIT((#271,#272));
#275=MEASURE_REPRESENTATION_ITEM('density measure',
POSITIVE_RATIO_MEASURE(1.),#274);
#276=PROPERTY_DEFINITION_REPRESENTATION(#281,#278);
#277=PROPERTY_DEFINITION_REPRESENTATION(#282,#279);
#278=REPRESENTATION('material name',(#280),#517);
#279=REPRESENTATION('density',(#275),#517);
#280=DESCRIPTIVE_REPRESENTATION_ITEM('Generic','Generic');
#281=PROPERTY_DEFINITION('material property','material name',#527);
#282=PROPERTY_DEFINITION('material property','density of part',#527);
#283=DATE_TIME_ROLE('creation_date');
#284=APPLIED_DATE_AND_TIME_ASSIGNMENT(#285,#283,(#527));
#285=DATE_AND_TIME(#286,#287);
#286=CALENDAR_DATE(2019,10,7);
#287=LOCAL_TIME(11,6,24.,#288);
#288=COORDINATED_UNIVERSAL_TIME_OFFSET(0,0,.BEHIND.);
#289=AXIS2_PLACEMENT_3D('placement',#433,#334,#335);
#290=AXIS2_PLACEMENT_3D('',#434,#336,#337);
#291=AXIS2_PLACEMENT_3D('',#436,#338,#339);
#292=AXIS2_PLACEMENT_3D('',#438,#340,#341);
#293=AXIS2_PLACEMENT_3D('',#440,#342,#343);
#294=AXIS2_PLACEMENT_3D('',#441,#344,#345);
#295=AXIS2_PLACEMENT_3D('',#442,#346,#347);
#296=AXIS2_PLACEMENT_3D('',#445,#348,#349);
#297=AXIS2_PLACEMENT_3D('',#446,#350,#351);
#298=AXIS2_PLACEMENT_3D('',#450,#353,#354);
#299=AXIS2_PLACEMENT_3D('',#451,#355,#356);
#300=AXIS2_PLACEMENT_3D('',#452,#357,#358);
#301=AXIS2_PLACEMENT_3D('',#455,#359,#360);
#302=AXIS2_PLACEMENT_3D('',#456,#361,#362);
#303=AXIS2_PLACEMENT_3D('',#460,#364,#365);
#304=AXIS2_PLACEMENT_3D('',#461,#366,#367);
#305=AXIS2_PLACEMENT_3D('',#462,#368,#369);
#306=AXIS2_PLACEMENT_3D('',#465,#370,#371);
#307=AXIS2_PLACEMENT_3D('',#466,#372,#373);
#308=AXIS2_PLACEMENT_3D('',#468,#375,#376);
#309=AXIS2_PLACEMENT_3D('',#471,#378,#379);
#310=AXIS2_PLACEMENT_3D('',#474,#380,#381);
#311=AXIS2_PLACEMENT_3D('',#475,#382,#383);
#312=AXIS2_PLACEMENT_3D('',#479,#385,#386);
#313=AXIS2_PLACEMENT_3D('',#480,#387,#388);
#314=AXIS2_PLACEMENT_3D('',#481,#389,#390);
#315=AXIS2_PLACEMENT_3D('',#484,#391,#392);
#316=AXIS2_PLACEMENT_3D('',#485,#393,#394);
#317=AXIS2_PLACEMENT_3D('',#489,#396,#397);
#318=AXIS2_PLACEMENT_3D('',#490,#398,#399);
#319=AXIS2_PLACEMENT_3D('',#491,#400,#401);
#320=AXIS2_PLACEMENT_3D('',#494,#402,#403);
#321=AXIS2_PLACEMENT_3D('',#495,#404,#405);
#322=AXIS2_PLACEMENT_3D('',#497,#406,#407);
#323=AXIS2_PLACEMENT_3D('',#499,#408,#409);
#324=AXIS2_PLACEMENT_3D('',#500,#410,#411);
#325=AXIS2_PLACEMENT_3D('',#501,#412,#413);
#326=AXIS2_PLACEMENT_3D('',#504,#414,#415);
#327=AXIS2_PLACEMENT_3D('',#505,#416,#417);
#328=AXIS2_PLACEMENT_3D('',#507,#419,#420);
#329=AXIS2_PLACEMENT_3D('',#509,#422,#423);
#330=AXIS2_PLACEMENT_3D('',#511,#425,#426);
#331=AXIS2_PLACEMENT_3D('',#512,#427,#428);
#332=AXIS2_PLACEMENT_3D('',#513,#429,#430);
#333=AXIS2_PLACEMENT_3D('',#514,#431,#432);
#334=DIRECTION('axis',(0.,0.,1.));
#335=DIRECTION('refdir',(1.,0.,0.));
#336=DIRECTION('center_axis',(-1.22464679914735E-16,0.,-1.));
#337=DIRECTION('ref_axis',(-1.,0.,0.));
#338=DIRECTION('center_axis',(-1.22464679914735E-16,0.,-1.));
#339=DIRECTION('ref_axis',(-1.,0.,1.22464679914735E-16));
#340=DIRECTION('center_axis',(1.22464679914735E-16,1.,-1.49975978266185E-32));
#341=DIRECTION('ref_axis',(1.,-1.22464679914735E-16,0.));
#342=DIRECTION('center_axis',(-1.22464679914735E-16,0.,-1.));
#343=DIRECTION('ref_axis',(-1.,0.,1.22464679914735E-16));
#344=DIRECTION('center_axis',(-1.22464679914735E-16,0.,-1.));
#345=DIRECTION('ref_axis',(-1.,0.,1.22464679914735E-16));
#346=DIRECTION('center_axis',(-1.22464679914735E-16,0.,-1.));
#347=DIRECTION('ref_axis',(-1.,0.,1.22464679914735E-16));
#348=DIRECTION('center_axis',(-1.22464679914735E-16,0.,-1.));
#349=DIRECTION('ref_axis',(-1.,0.,1.22464679914735E-16));
#350=DIRECTION('center_axis',(-1.22464679914735E-16,0.,-1.));
#351=DIRECTION('ref_axis',(-1.,0.,1.22464679914735E-16));
#352=DIRECTION('',(-1.22464679914735E-16,0.,-1.));
#353=DIRECTION('center_axis',(-1.22464679914735E-16,0.,-1.));
#354=DIRECTION('ref_axis',(-1.,0.,1.22464679914735E-16));
#355=DIRECTION('center_axis',(-1.22464679914735E-16,0.,-1.));
#356=DIRECTION('ref_axis',(-1.,0.,1.22464679914735E-16));
#357=DIRECTION('center_axis',(0.,0.,-1.));
#358=DIRECTION('ref_axis',(-1.,0.,0.));
#359=DIRECTION('center_axis',(0.,0.,-1.));
#360=DIRECTION('ref_axis',(-1.,0.,0.));
#361=DIRECTION('center_axis',(0.,0.,-1.));
#362=DIRECTION('ref_axis',(-1.,0.,0.));
#363=DIRECTION('',(0.707106781186545,-8.6595605623549E-17,-0.70710678118655));
#364=DIRECTION('center_axis',(0.,0.,-1.));
#365=DIRECTION('ref_axis',(-1.,0.,0.));
#366=DIRECTION('center_axis',(0.,0.,-1.));
#367=DIRECTION('ref_axis',(-1.,0.,0.));
#368=DIRECTION('center_axis',(0.,0.,-1.));
#369=DIRECTION('ref_axis',(-1.,0.,0.));
#370=DIRECTION('center_axis',(0.,0.,-1.));
#371=DIRECTION('ref_axis',(-1.,0.,0.));
#372=DIRECTION('center_axis',(0.,0.,-1.));
#373=DIRECTION('ref_axis',(-1.,0.,0.));
#374=DIRECTION('',(0.,0.,-1.));
#375=DIRECTION('center_axis',(0.,0.,-1.));
#376=DIRECTION('ref_axis',(-1.,0.,0.));
#377=DIRECTION('',(0.85716730070211,-1.04972719113862E-16,-0.515038074910058));
#378=DIRECTION('center_axis',(-1.22464679914734E-16,0.,-1.));
#379=DIRECTION('ref_axis',(-1.,0.,1.22464679914734E-16));
#380=DIRECTION('center_axis',(-1.22464679914734E-16,0.,-1.));
#381=DIRECTION('ref_axis',(1.,0.,-1.22464679914734E-16));
#382=DIRECTION('center_axis',(-1.22464679914734E-16,0.,-1.));
#383=DIRECTION('ref_axis',(1.,0.,-1.22464679914734E-16));
#384=DIRECTION('',(-0.707106781186544,8.65956056235489E-17,0.707106781186551));
#385=DIRECTION('center_axis',(1.22464679914735E-16,0.,1.));
#386=DIRECTION('ref_axis',(1.,0.,-1.22464679914735E-16));
#387=DIRECTION('center_axis',(1.22464679914735E-16,0.,1.));
#388=DIRECTION('ref_axis',(1.,0.,-1.22464679914735E-16));
#389=DIRECTION('center_axis',(1.22464679914735E-16,0.,1.));
#390=DIRECTION('ref_axis',(1.,0.,-1.22464679914735E-16));
#391=DIRECTION('center_axis',(1.22464679914735E-16,0.,1.));
#392=DIRECTION('ref_axis',(-1.,0.,1.22464679914735E-16));
#393=DIRECTION('center_axis',(1.22464679914735E-16,0.,1.));
#394=DIRECTION('ref_axis',(-1.,0.,1.22464679914735E-16));
#395=DIRECTION('',(0.707106781186563,8.65956056235513E-17,-0.707106781186532));
#396=DIRECTION('center_axis',(-1.22464679914735E-16,0.,-1.));
#397=DIRECTION('ref_axis',(-1.,0.,1.22464679914735E-16));
#398=DIRECTION('center_axis',(-1.22464679914735E-16,0.,-1.));
#399=DIRECTION('ref_axis',(-1.,0.,1.22464679914735E-16));
#400=DIRECTION('center_axis',(1.22464679914735E-16,0.,1.));
#401=DIRECTION('ref_axis',(1.,0.,0.));
#402=DIRECTION('center_axis',(1.22464679914735E-16,0.,1.));
#403=DIRECTION('ref_axis',(1.,0.,-1.22464679914735E-16));
#404=DIRECTION('center_axis',(1.22464679914735E-16,0.,1.));
#405=DIRECTION('ref_axis',(1.,0.,-1.22464679914735E-16));
#406=DIRECTION('center_axis',(1.22464679914735E-16,-1.,-1.49975978266185E-32));
#407=DIRECTION('ref_axis',(-1.,-1.22464679914735E-16,0.));
#408=DIRECTION('center_axis',(-1.22464679914735E-16,0.,-1.));
#409=DIRECTION('ref_axis',(1.,0.,-1.22464679914735E-16));
#410=DIRECTION('center_axis',(-1.22464679914735E-16,0.,-1.));
#411=DIRECTION('ref_axis',(1.,0.,-1.22464679914735E-16));
#412=DIRECTION('center_axis',(-1.22464679914735E-16,0.,-1.));
#413=DIRECTION('ref_axis',(-1.,0.,1.22464679914735E-16));
#414=DIRECTION('center_axis',(-1.22464679914735E-16,0.,-1.));
#415=DIRECTION('ref_axis',(-1.,0.,1.22464679914735E-16));
#416=DIRECTION('center_axis',(-1.22464679914735E-16,0.,-1.));
#417=DIRECTION('ref_axis',(-1.,0.,1.22464679914735E-16));
#418=DIRECTION('',(1.22464679914735E-16,0.,1.));
#419=DIRECTION('center_axis',(-1.22464679914735E-16,0.,-1.));
#420=DIRECTION('ref_axis',(-1.,0.,1.22464679914735E-16));
#421=DIRECTION('',(1.22464679914735E-16,0.,1.));
#422=DIRECTION('center_axis',(-1.22464679914735E-16,0.,-1.));
#423=DIRECTION('ref_axis',(-1.,0.,1.22464679914735E-16));
#424=DIRECTION('',(1.22464679914735E-16,0.,1.));
#425=DIRECTION('center_axis',(-1.22464679914735E-16,0.,-1.));
#426=DIRECTION('ref_axis',(-1.,0.,1.22464679914735E-16));
#427=DIRECTION('center_axis',(1.22464679914735E-16,0.,1.));
#428=DIRECTION('ref_axis',(1.,0.,-1.22464679914735E-16));
#429=DIRECTION('center_axis',(1.22464679914735E-16,0.,1.));
#430=DIRECTION('ref_axis',(1.,0.,-1.22464679914735E-16));
#431=DIRECTION('center_axis',(-1.22464679914735E-16,0.,-1.));
#432=DIRECTION('ref_axis',(-1.,0.,1.22464679914735E-16));
#433=CARTESIAN_POINT('',(0.,0.,0.));
#434=CARTESIAN_POINT('Origin',(1.56125112837913E-14,0.,128.));
#435=CARTESIAN_POINT('',(9.50000000000002,1.16341445918999E-15,127.));
#436=CARTESIAN_POINT('Origin',(1.55530143491714E-14,0.,127.));
#437=CARTESIAN_POINT('',(9.50000000000002,-1.16341445918999E-15,129.));
#438=CARTESIAN_POINT('Origin',(9.50000000000002,-1.16341445918999E-15,128.));
#439=CARTESIAN_POINT('',(-9.49999999999998,0.,129.));
#440=CARTESIAN_POINT('Origin',(1.57979437090009E-14,0.,129.));
#441=CARTESIAN_POINT('Origin',(1.57979437090009E-14,0.,129.));
#442=CARTESIAN_POINT('Origin',(3.67394039744206E-16,6.,3.));
#443=CARTESIAN_POINT('',(-2.,6.,3.));
#444=CARTESIAN_POINT('',(2.,6.,3.));
#445=CARTESIAN_POINT('Origin',(3.67394039744206E-16,6.,3.));
#446=CARTESIAN_POINT('Origin',(3.67394039744206E-16,6.,3.));
#447=CARTESIAN_POINT('',(2.,6.,0.));
#448=CARTESIAN_POINT('',(2.,6.,3.));
#449=CARTESIAN_POINT('',(-2.,6.,2.44929359829471E-16));
#450=CARTESIAN_POINT('Origin',(0.,6.,0.));
#451=CARTESIAN_POINT('Origin',(0.,6.,0.));
#452=CARTESIAN_POINT('Origin',(0.,0.,-1.73472347597681E-15));
#453=CARTESIAN_POINT('',(-2.5,0.,0.525000000000003));
#454=CARTESIAN_POINT('',(2.5,-3.06161699786838E-16,0.525000000000002));
#455=CARTESIAN_POINT('Origin',(0.,0.,0.525000000000003));
#456=CARTESIAN_POINT('Origin',(0.,0.,0.525000000000003));
#457=CARTESIAN_POINT('',(3.025,-3.70455656742074E-16,-2.03597176772984E-15));
#458=CARTESIAN_POINT('',(3.025,-3.70455656742074E-16,-1.73472347597681E-15));
#459=CARTESIAN_POINT('',(-3.025,0.,-1.73472347597681E-15));
#460=CARTESIAN_POINT('Origin',(0.,0.,-1.73472347597681E-15));
#461=CARTESIAN_POINT('Origin',(0.,0.,-1.73472347597681E-15));
#462=CARTESIAN_POINT('Origin',(0.,0.,0.));
#463=CARTESIAN_POINT('',(-2.5,0.,9.));
#464=CARTESIAN_POINT('',(2.5,-3.06161699786838E-16,9.));
#465=CARTESIAN_POINT('Origin',(0.,0.,9.));
#466=CARTESIAN_POINT('Origin',(0.,0.,9.));
#467=CARTESIAN_POINT('',(2.5,-3.06161699786838E-16,0.));
#468=CARTESIAN_POINT('Origin',(0.,0.,9.));
#469=CARTESIAN_POINT('',(-2.57228525537814E-15,0.,10.5021515475689));
#470=CARTESIAN_POINT('',(2.5,-3.06161699786838E-16,9.));
#471=CARTESIAN_POINT('Origin',(1.75736815677645E-14,0.,143.5));
#472=CARTESIAN_POINT('',(-9.49999999999998,0.,143.5));
#473=CARTESIAN_POINT('',(9.50000000000002,-1.16341445918999E-15,143.5));
#474=CARTESIAN_POINT('Origin',(1.75736815677645E-14,0.,143.5));
#475=CARTESIAN_POINT('Origin',(1.75736815677645E-14,0.,143.5));
#476=CARTESIAN_POINT('',(9.00000000000002,-1.10218211923262E-15,144.));
#477=CARTESIAN_POINT('',(9.50000000000002,-1.16341445918999E-15,143.5));
#478=CARTESIAN_POINT('',(-8.99999999999996,0.,144.));
#479=CARTESIAN_POINT('Origin',(1.76349139077219E-14,0.,144.));
#480=CARTESIAN_POINT('Origin',(1.76349139077219E-14,0.,144.));
#481=CARTESIAN_POINT('Origin',(-7.12385896764382E-32,0.,-5.81707229594992E-16));
#482=CARTESIAN_POINT('',(9.49999999999999,1.16341445918998E-15,0.499999999999992));
#483=CARTESIAN_POINT('',(-9.49999999999999,-1.16341445918998E-15,0.499999999999991));
#484=CARTESIAN_POINT('Origin',(6.12323399573668E-17,0.,0.499999999999993));
#485=CARTESIAN_POINT('Origin',(6.12323399573668E-17,0.,0.499999999999993));
#486=CARTESIAN_POINT('',(-8.99999999999998,-1.10218211923262E-15,1.74214164767699E-16));
#487=CARTESIAN_POINT('',(-8.99999999999998,-1.10218211923262E-15,5.20474889637621E-16));
#488=CARTESIAN_POINT('',(8.99999999999998,0.,-1.68388934882761E-15));
#489=CARTESIAN_POINT('Origin',(-7.12385896764382E-32,0.,-5.81707229594992E-16));
#490=CARTESIAN_POINT('Origin',(-7.12385896764382E-32,0.,-5.81707229594992E-16));
#491=CARTESIAN_POINT('Origin',(2.98813818991954E-14,0.,244.));
#492=CARTESIAN_POINT('',(3.00000000000003,0.,245.));
#493=CARTESIAN_POINT('',(-2.99999999999997,-3.67394039744206E-16,245.));
#494=CARTESIAN_POINT('Origin',(3.00038465791102E-14,0.,245.));
#495=CARTESIAN_POINT('Origin',(3.00038465791102E-14,0.,245.));
#496=CARTESIAN_POINT('',(-3.99999999999997,-4.89858719658941E-16,244.));
#497=CARTESIAN_POINT('Origin',(-2.99999999999997,-3.67394039744206E-16,
244.));
#498=CARTESIAN_POINT('',(4.00000000000003,4.89858719658942E-16,244.));
#499=CARTESIAN_POINT('Origin',(2.98813818991954E-14,0.,244.));
#500=CARTESIAN_POINT('Origin',(2.98813818991954E-14,0.,244.));
#501=CARTESIAN_POINT('Origin',(0.,0.,0.));
#502=CARTESIAN_POINT('',(-3.99999999999998,0.,144.));
#503=CARTESIAN_POINT('',(4.00000000000002,-4.89858719658941E-16,144.));
#504=CARTESIAN_POINT('Origin',(1.76349139077219E-14,0.,144.));
#505=CARTESIAN_POINT('Origin',(1.76349139077219E-14,0.,144.));
#506=CARTESIAN_POINT('',(4.,-4.89858719658941E-16,-4.8985871965894E-16));
#507=CARTESIAN_POINT('Origin',(0.,0.,0.));
#508=CARTESIAN_POINT('',(9.5,-1.16341445918999E-15,-1.16341445918998E-15));
#509=CARTESIAN_POINT('Origin',(0.,0.,0.));
#510=CARTESIAN_POINT('',(9.49999999999999,-1.16341445918998E-15,-1.16341445918998E-15));
#511=CARTESIAN_POINT('Origin',(-9.49999999999999,0.,5.81707229594992E-16));
#512=CARTESIAN_POINT('Origin',(-3.99999999999998,0.,144.));
#513=CARTESIAN_POINT('Origin',(3.00038465791102E-14,0.,245.));
#514=CARTESIAN_POINT('Origin',(3.67394039744206E-16,6.,3.));
#515=UNCERTAINTY_MEASURE_WITH_UNIT(LENGTH_MEASURE(0.01),#519,
'DISTANCE_ACCURACY_VALUE',
'Maximum model space distance between geometric entities at asserted c
onnectivities');
#516=UNCERTAINTY_MEASURE_WITH_UNIT(LENGTH_MEASURE(0.01),#519,
'DISTANCE_ACCURACY_VALUE',
'Maximum model space distance between geometric entities at asserted c
onnectivities');
#517=(
GEOMETRIC_REPRESENTATION_CONTEXT(3)
GLOBAL_UNCERTAINTY_ASSIGNED_CONTEXT((#515))
GLOBAL_UNIT_ASSIGNED_CONTEXT((#519,#521,#522))
REPRESENTATION_CONTEXT('','3D')
);
#518=(
GEOMETRIC_REPRESENTATION_CONTEXT(3)
GLOBAL_UNCERTAINTY_ASSIGNED_CONTEXT((#516))
GLOBAL_UNIT_ASSIGNED_CONTEXT((#519,#521,#522))
REPRESENTATION_CONTEXT('','3D')
);
#519=(
LENGTH_UNIT()
NAMED_UNIT(*)
SI_UNIT(.MILLI.,.METRE.)
);
#520=(
LENGTH_UNIT()
NAMED_UNIT(*)
SI_UNIT(.CENTI.,.METRE.)
);
#521=(
NAMED_UNIT(*)
PLANE_ANGLE_UNIT()
SI_UNIT($,.RADIAN.)
);
#522=(
NAMED_UNIT(*)
SI_UNIT($,.STERADIAN.)
SOLID_ANGLE_UNIT()
);
#523=SHAPE_DEFINITION_REPRESENTATION(#524,#525);
#524=PRODUCT_DEFINITION_SHAPE('',$,#527);
#525=SHAPE_REPRESENTATION('',(#289),#517);
#526=PRODUCT_DEFINITION_CONTEXT('part definition',#531,'design');
#527=PRODUCT_DEFINITION('K19_100_A','K19_100_A',#528,#526);
#528=PRODUCT_DEFINITION_FORMATION('ANY',$,#533);
#529=PRODUCT_RELATED_PRODUCT_CATEGORY('K19_100_A','K19_100_A',(#533));
#530=APPLICATION_PROTOCOL_DEFINITION('international standard',
'automotive_design',2009,#531);
#531=APPLICATION_CONTEXT(
'Core Data for Automotive Mechanical Design Process');
#532=PRODUCT_CONTEXT('part definition',#531,'mechanical');
#533=PRODUCT('K19_100_A','K19_100_A','STEP AP203',(#532));
#534=PRESENTATION_STYLE_ASSIGNMENT((#535));
#535=SURFACE_STYLE_USAGE(.BOTH.,#538);
#536=SURFACE_STYLE_RENDERING_WITH_PROPERTIES($,#542,(#537));
#537=SURFACE_STYLE_TRANSPARENT(0.);
#538=SURFACE_SIDE_STYLE('',(#539,#536));
#539=SURFACE_STYLE_FILL_AREA(#540);
#540=FILL_AREA_STYLE('',(#541));
#541=FILL_AREA_STYLE_COLOUR('',#542);
#542=COLOUR_RGB('',0.749019607843137,0.749019607843137,0.749019607843137);
ENDSEC;
END-ISO-10303-21;
