ISO-10303-21;
HEADER;
/* Generated by software containing ST-Developer
 * from STEP Tools, Inc. (www.steptools.com) 
 */

FILE_DESCRIPTION(
/* description */ ('Alibre Inc.'),
/* implementation_level */ '2;1');

FILE_NAME(
/* name */ 'C:\\Users\\Do\X2\011F\X0\an\\Desktop\\yen\X2\0131\X0\\\E 0
0200\\E_00200_010_A.stp',
/* time_stamp */ '2019-07-26T15:16:31+03:00',
/* author */ ('Do\X2\011F\X0\an'),
/* organization */ (''),
/* preprocessor_version */ 'ST-DEVELOPER v18',
/* originating_system */ 'Autodesk Inventor 2020',
/* authorisation */ '');

FILE_SCHEMA (('CONFIG_CONTROL_DESIGN'));
ENDSEC;

DATA;
#10=MECHANICAL_DESIGN_GEOMETRIC_PRESENTATION_REPRESENTATION('',(#13),#593);
#11=SHAPE_REPRESENTATION_RELATIONSHIP('SRR','None',#600,#12);
#12=ADVANCED_BREP_SHAPE_REPRESENTATION('',(#14),#592);
#13=STYLED_ITEM('',(#610),#14);
#14=MANIFOLD_SOLID_BREP('Solid2',#309);
#15=CONICAL_SURFACE('',#342,2.62943049073219,0.78539816339742);
#16=CONICAL_SURFACE('',#349,1.3,1.08210413623648);
#17=CONICAL_SURFACE('',#355,2.6804130256176,0.592197717401405);
#18=CONICAL_SURFACE('',#361,12.25,0.785398163397433);
#19=CONICAL_SURFACE('',#376,12.25,0.785398163397539);
#20=FACE_BOUND('',#48,.T.);
#21=FACE_BOUND('',#56,.T.);
#22=FACE_BOUND('',#63,.T.);
#23=PLANE('',#339);
#24=PLANE('',#348);
#25=PLANE('',#358);
#26=PLANE('',#379);
#27=TOROIDAL_SURFACE('',#335,5.5,0.5);
#28=TOROIDAL_SURFACE('',#368,12.5,0.999999999999996);
#29=FACE_OUTER_BOUND('',#45,.T.);
#30=FACE_OUTER_BOUND('',#46,.T.);
#31=FACE_OUTER_BOUND('',#47,.T.);
#32=FACE_OUTER_BOUND('',#49,.T.);
#33=FACE_OUTER_BOUND('',#50,.T.);
#34=FACE_OUTER_BOUND('',#51,.T.);
#35=FACE_OUTER_BOUND('',#52,.T.);
#36=FACE_OUTER_BOUND('',#53,.T.);
#37=FACE_OUTER_BOUND('',#54,.T.);
#38=FACE_OUTER_BOUND('',#55,.T.);
#39=FACE_OUTER_BOUND('',#57,.T.);
#40=FACE_OUTER_BOUND('',#58,.T.);
#41=FACE_OUTER_BOUND('',#59,.T.);
#42=FACE_OUTER_BOUND('',#60,.T.);
#43=FACE_OUTER_BOUND('',#61,.T.);
#44=FACE_OUTER_BOUND('',#62,.T.);
#45=EDGE_LOOP('',(#198,#199,#200,#201,#202,#203,#204));
#46=EDGE_LOOP('',(#205,#206,#207,#208,#209,#210,#211));
#47=EDGE_LOOP('',(#212,#213));
#48=EDGE_LOOP('',(#214,#215));
#49=EDGE_LOOP('',(#216,#217,#218,#219,#220,#221));
#50=EDGE_LOOP('',(#222,#223,#224,#225,#226,#227));
#51=EDGE_LOOP('',(#228,#229));
#52=EDGE_LOOP('',(#230,#231,#232,#233));
#53=EDGE_LOOP('',(#234,#235,#236,#237,#238,#239));
#54=EDGE_LOOP('',(#240,#241,#242,#243,#244,#245));
#55=EDGE_LOOP('',(#246,#247));
#56=EDGE_LOOP('',(#248,#249));
#57=EDGE_LOOP('',(#250,#251,#252,#253,#254,#255));
#58=EDGE_LOOP('',(#256,#257,#258,#259,#260,#261,#262));
#59=EDGE_LOOP('',(#263,#264,#265,#266,#267,#268,#269,#270));
#60=EDGE_LOOP('',(#271,#272,#273,#274,#275,#276,#277));
#61=EDGE_LOOP('',(#278,#279,#280,#281,#282,#283));
#62=EDGE_LOOP('',(#284,#285));
#63=EDGE_LOOP('',(#286,#287));
#64=LINE('',#502,#74);
#65=LINE('',#523,#75);
#66=LINE('',#529,#76);
#67=LINE('',#534,#77);
#68=LINE('',#543,#78);
#69=LINE('',#546,#79);
#70=LINE('',#560,#80);
#71=LINE('',#567,#81);
#72=LINE('',#582,#82);
#73=LINE('',#585,#83);
#74=VECTOR('',#388,6.);
#75=VECTOR('',#415,2.62943049073219);
#76=VECTOR('',#422,2.60000000000554);
#77=VECTOR('',#427,1.3);
#78=VECTOR('',#438,2.6);
#79=VECTOR('',#441,2.6804130256176);
#80=VECTOR('',#458,12.25);
#81=VECTOR('',#465,12.5);
#82=VECTOR('',#484,12.5);
#83=VECTOR('',#487,12.25);
#84=CIRCLE('',#330,6.);
#85=CIRCLE('',#331,6.);
#86=CIRCLE('',#332,6.);
#87=CIRCLE('',#333,6.);
#88=CIRCLE('',#334,6.);
#89=CIRCLE('',#336,5.5);
#90=CIRCLE('',#337,5.5);
#91=CIRCLE('',#338,0.5);
#92=CIRCLE('',#340,2.65886098146439);
#93=CIRCLE('',#341,2.65886098146439);
#94=CIRCLE('',#343,2.6);
#95=CIRCLE('',#344,2.6);
#96=CIRCLE('',#346,2.60000000001108);
#97=CIRCLE('',#347,2.60000000001108);
#98=CIRCLE('',#350,2.6);
#99=CIRCLE('',#351,2.6);
#100=CIRCLE('',#353,2.6);
#101=CIRCLE('',#354,2.6);
#102=CIRCLE('',#356,2.7608260512352);
#103=CIRCLE('',#357,2.7608260512352);
#104=CIRCLE('',#359,12.);
#105=CIRCLE('',#360,12.);
#106=CIRCLE('',#362,12.5);
#107=CIRCLE('',#363,12.5);
#108=CIRCLE('',#365,12.5);
#109=CIRCLE('',#366,12.5);
#110=CIRCLE('',#367,12.5);
#111=CIRCLE('',#369,12.5);
#112=CIRCLE('',#370,12.5);
#113=CIRCLE('',#371,12.5);
#114=CIRCLE('',#372,0.999999999999996);
#115=CIRCLE('',#374,12.5);
#116=CIRCLE('',#375,12.5);
#117=CIRCLE('',#377,12.);
#118=CIRCLE('',#378,12.);
#119=VERTEX_POINT('',#496);
#120=VERTEX_POINT('',#497);
#121=VERTEX_POINT('',#499);
#122=VERTEX_POINT('',#501);
#123=VERTEX_POINT('',#503);
#124=VERTEX_POINT('',#508);
#125=VERTEX_POINT('',#509);
#126=VERTEX_POINT('',#514);
#127=VERTEX_POINT('',#515);
#128=VERTEX_POINT('',#519);
#129=VERTEX_POINT('',#520);
#130=VERTEX_POINT('',#525);
#131=VERTEX_POINT('',#526);
#132=VERTEX_POINT('',#532);
#133=VERTEX_POINT('',#533);
#134=VERTEX_POINT('',#535);
#135=VERTEX_POINT('',#539);
#136=VERTEX_POINT('',#540);
#137=VERTEX_POINT('',#545);
#138=VERTEX_POINT('',#547);
#139=VERTEX_POINT('',#551);
#140=VERTEX_POINT('',#552);
#141=VERTEX_POINT('',#556);
#142=VERTEX_POINT('',#557);
#143=VERTEX_POINT('',#562);
#144=VERTEX_POINT('',#563);
#145=VERTEX_POINT('',#565);
#146=VERTEX_POINT('',#570);
#147=VERTEX_POINT('',#571);
#148=VERTEX_POINT('',#573);
#149=VERTEX_POINT('',#578);
#150=VERTEX_POINT('',#579);
#151=VERTEX_POINT('',#584);
#152=VERTEX_POINT('',#586);
#153=EDGE_CURVE('',#119,#120,#84,.T.);
#154=EDGE_CURVE('',#121,#119,#85,.T.);
#155=EDGE_CURVE('',#121,#122,#64,.T.);
#156=EDGE_CURVE('',#122,#123,#86,.T.);
#157=EDGE_CURVE('',#123,#122,#87,.T.);
#158=EDGE_CURVE('',#120,#121,#88,.T.);
#159=EDGE_CURVE('',#124,#125,#89,.T.);
#160=EDGE_CURVE('',#125,#124,#90,.T.);
#161=EDGE_CURVE('',#125,#120,#91,.T.);
#162=EDGE_CURVE('',#126,#127,#92,.T.);
#163=EDGE_CURVE('',#127,#126,#93,.T.);
#164=EDGE_CURVE('',#128,#129,#94,.T.);
#165=EDGE_CURVE('',#129,#128,#95,.T.);
#166=EDGE_CURVE('',#129,#127,#65,.T.);
#167=EDGE_CURVE('',#130,#131,#96,.T.);
#168=EDGE_CURVE('',#131,#130,#97,.T.);
#169=EDGE_CURVE('',#131,#129,#66,.T.);
#170=EDGE_CURVE('',#132,#133,#67,.T.);
#171=EDGE_CURVE('',#134,#133,#98,.T.);
#172=EDGE_CURVE('',#133,#134,#99,.T.);
#173=EDGE_CURVE('',#135,#136,#100,.T.);
#174=EDGE_CURVE('',#136,#135,#101,.T.);
#175=EDGE_CURVE('',#136,#133,#68,.T.);
#176=EDGE_CURVE('',#136,#137,#69,.T.);
#177=EDGE_CURVE('',#138,#137,#102,.T.);
#178=EDGE_CURVE('',#137,#138,#103,.T.);
#179=EDGE_CURVE('',#139,#140,#104,.T.);
#180=EDGE_CURVE('',#140,#139,#105,.T.);
#181=EDGE_CURVE('',#141,#142,#106,.T.);
#182=EDGE_CURVE('',#142,#141,#107,.T.);
#183=EDGE_CURVE('',#142,#140,#70,.T.);
#184=EDGE_CURVE('',#143,#144,#108,.T.);
#185=EDGE_CURVE('',#145,#143,#109,.T.);
#186=EDGE_CURVE('',#145,#142,#71,.T.);
#187=EDGE_CURVE('',#144,#145,#110,.T.);
#188=EDGE_CURVE('',#146,#147,#111,.T.);
#189=EDGE_CURVE('',#148,#146,#112,.T.);
#190=EDGE_CURVE('',#147,#148,#113,.T.);
#191=EDGE_CURVE('',#147,#144,#114,.T.);
#192=EDGE_CURVE('',#149,#150,#115,.T.);
#193=EDGE_CURVE('',#150,#149,#116,.T.);
#194=EDGE_CURVE('',#150,#148,#72,.T.);
#195=EDGE_CURVE('',#150,#151,#73,.T.);
#196=EDGE_CURVE('',#152,#151,#117,.T.);
#197=EDGE_CURVE('',#151,#152,#118,.T.);
#198=ORIENTED_EDGE('',*,*,#153,.F.);
#199=ORIENTED_EDGE('',*,*,#154,.F.);
#200=ORIENTED_EDGE('',*,*,#155,.T.);
#201=ORIENTED_EDGE('',*,*,#156,.T.);
#202=ORIENTED_EDGE('',*,*,#157,.T.);
#203=ORIENTED_EDGE('',*,*,#155,.F.);
#204=ORIENTED_EDGE('',*,*,#158,.F.);
#205=ORIENTED_EDGE('',*,*,#159,.F.);
#206=ORIENTED_EDGE('',*,*,#160,.F.);
#207=ORIENTED_EDGE('',*,*,#161,.T.);
#208=ORIENTED_EDGE('',*,*,#158,.T.);
#209=ORIENTED_EDGE('',*,*,#154,.T.);
#210=ORIENTED_EDGE('',*,*,#153,.T.);
#211=ORIENTED_EDGE('',*,*,#161,.F.);
#212=ORIENTED_EDGE('',*,*,#159,.T.);
#213=ORIENTED_EDGE('',*,*,#160,.T.);
#214=ORIENTED_EDGE('',*,*,#162,.F.);
#215=ORIENTED_EDGE('',*,*,#163,.F.);
#216=ORIENTED_EDGE('',*,*,#164,.F.);
#217=ORIENTED_EDGE('',*,*,#165,.F.);
#218=ORIENTED_EDGE('',*,*,#166,.T.);
#219=ORIENTED_EDGE('',*,*,#163,.T.);
#220=ORIENTED_EDGE('',*,*,#162,.T.);
#221=ORIENTED_EDGE('',*,*,#166,.F.);
#222=ORIENTED_EDGE('',*,*,#167,.F.);
#223=ORIENTED_EDGE('',*,*,#168,.F.);
#224=ORIENTED_EDGE('',*,*,#169,.T.);
#225=ORIENTED_EDGE('',*,*,#165,.T.);
#226=ORIENTED_EDGE('',*,*,#164,.T.);
#227=ORIENTED_EDGE('',*,*,#169,.F.);
#228=ORIENTED_EDGE('',*,*,#167,.T.);
#229=ORIENTED_EDGE('',*,*,#168,.T.);
#230=ORIENTED_EDGE('',*,*,#170,.T.);
#231=ORIENTED_EDGE('',*,*,#171,.F.);
#232=ORIENTED_EDGE('',*,*,#172,.F.);
#233=ORIENTED_EDGE('',*,*,#170,.F.);
#234=ORIENTED_EDGE('',*,*,#173,.F.);
#235=ORIENTED_EDGE('',*,*,#174,.F.);
#236=ORIENTED_EDGE('',*,*,#175,.T.);
#237=ORIENTED_EDGE('',*,*,#172,.T.);
#238=ORIENTED_EDGE('',*,*,#171,.T.);
#239=ORIENTED_EDGE('',*,*,#175,.F.);
#240=ORIENTED_EDGE('',*,*,#173,.T.);
#241=ORIENTED_EDGE('',*,*,#176,.T.);
#242=ORIENTED_EDGE('',*,*,#177,.F.);
#243=ORIENTED_EDGE('',*,*,#178,.F.);
#244=ORIENTED_EDGE('',*,*,#176,.F.);
#245=ORIENTED_EDGE('',*,*,#174,.T.);
#246=ORIENTED_EDGE('',*,*,#179,.F.);
#247=ORIENTED_EDGE('',*,*,#180,.F.);
#248=ORIENTED_EDGE('',*,*,#177,.T.);
#249=ORIENTED_EDGE('',*,*,#178,.T.);
#250=ORIENTED_EDGE('',*,*,#181,.F.);
#251=ORIENTED_EDGE('',*,*,#182,.F.);
#252=ORIENTED_EDGE('',*,*,#183,.T.);
#253=ORIENTED_EDGE('',*,*,#180,.T.);
#254=ORIENTED_EDGE('',*,*,#179,.T.);
#255=ORIENTED_EDGE('',*,*,#183,.F.);
#256=ORIENTED_EDGE('',*,*,#184,.F.);
#257=ORIENTED_EDGE('',*,*,#185,.F.);
#258=ORIENTED_EDGE('',*,*,#186,.T.);
#259=ORIENTED_EDGE('',*,*,#182,.T.);
#260=ORIENTED_EDGE('',*,*,#181,.T.);
#261=ORIENTED_EDGE('',*,*,#186,.F.);
#262=ORIENTED_EDGE('',*,*,#187,.F.);
#263=ORIENTED_EDGE('',*,*,#188,.F.);
#264=ORIENTED_EDGE('',*,*,#189,.F.);
#265=ORIENTED_EDGE('',*,*,#190,.F.);
#266=ORIENTED_EDGE('',*,*,#191,.T.);
#267=ORIENTED_EDGE('',*,*,#187,.T.);
#268=ORIENTED_EDGE('',*,*,#185,.T.);
#269=ORIENTED_EDGE('',*,*,#184,.T.);
#270=ORIENTED_EDGE('',*,*,#191,.F.);
#271=ORIENTED_EDGE('',*,*,#192,.F.);
#272=ORIENTED_EDGE('',*,*,#193,.F.);
#273=ORIENTED_EDGE('',*,*,#194,.T.);
#274=ORIENTED_EDGE('',*,*,#189,.T.);
#275=ORIENTED_EDGE('',*,*,#188,.T.);
#276=ORIENTED_EDGE('',*,*,#190,.T.);
#277=ORIENTED_EDGE('',*,*,#194,.F.);
#278=ORIENTED_EDGE('',*,*,#192,.T.);
#279=ORIENTED_EDGE('',*,*,#195,.T.);
#280=ORIENTED_EDGE('',*,*,#196,.F.);
#281=ORIENTED_EDGE('',*,*,#197,.F.);
#282=ORIENTED_EDGE('',*,*,#195,.F.);
#283=ORIENTED_EDGE('',*,*,#193,.T.);
#284=ORIENTED_EDGE('',*,*,#196,.T.);
#285=ORIENTED_EDGE('',*,*,#197,.T.);
#286=ORIENTED_EDGE('',*,*,#157,.F.);
#287=ORIENTED_EDGE('',*,*,#156,.F.);
#288=CYLINDRICAL_SURFACE('',#329,6.);
#289=CYLINDRICAL_SURFACE('',#345,2.60000000000554);
#290=CYLINDRICAL_SURFACE('',#352,2.6);
#291=CYLINDRICAL_SURFACE('',#364,12.5);
#292=CYLINDRICAL_SURFACE('',#373,12.5);
#293=ADVANCED_FACE('',(#29),#288,.T.);
#294=ADVANCED_FACE('',(#30),#27,.T.);
#295=ADVANCED_FACE('',(#31,#20),#23,.T.);
#296=ADVANCED_FACE('',(#32),#15,.F.);
#297=ADVANCED_FACE('',(#33),#289,.F.);
#298=ADVANCED_FACE('',(#34),#24,.T.);
#299=ADVANCED_FACE('',(#35),#16,.F.);
#300=ADVANCED_FACE('',(#36),#290,.F.);
#301=ADVANCED_FACE('',(#37),#17,.F.);
#302=ADVANCED_FACE('',(#38,#21),#25,.T.);
#303=ADVANCED_FACE('',(#39),#18,.T.);
#304=ADVANCED_FACE('',(#40),#291,.T.);
#305=ADVANCED_FACE('',(#41),#28,.F.);
#306=ADVANCED_FACE('',(#42),#292,.T.);
#307=ADVANCED_FACE('',(#43),#19,.T.);
#308=ADVANCED_FACE('',(#44,#22),#26,.T.);
#309=CLOSED_SHELL('',(#293,#294,#295,#296,#297,#298,#299,#300,#301,#302,
#303,#304,#305,#306,#307,#308));
#310=DERIVED_UNIT_ELEMENT(#312,1.);
#311=DERIVED_UNIT_ELEMENT(#595,3.);
#312=(
MASS_UNIT()
NAMED_UNIT(*)
SI_UNIT($,.GRAM.)
);
#313=DERIVED_UNIT((#310,#311));
#314=MEASURE_REPRESENTATION_ITEM('density measure',
POSITIVE_RATIO_MEASURE(1.),#313);
#315=PROPERTY_DEFINITION_REPRESENTATION(#320,#317);
#316=PROPERTY_DEFINITION_REPRESENTATION(#321,#318);
#317=REPRESENTATION('material name',(#319),#592);
#318=REPRESENTATION('density',(#314),#592);
#319=DESCRIPTIVE_REPRESENTATION_ITEM('Generic','Generic');
#320=PROPERTY_DEFINITION('material property','material name',#602);
#321=PROPERTY_DEFINITION('material property','density of part',#602);
#322=DATE_TIME_ROLE('creation_date');
#323=CC_DESIGN_DATE_AND_TIME_ASSIGNMENT(#324,#322,(#602));
#324=DATE_AND_TIME(#325,#326);
#325=CALENDAR_DATE(2019,24,3);
#326=LOCAL_TIME(18,26,20.,#327);
#327=COORDINATED_UNIVERSAL_TIME_OFFSET(0,0,.BEHIND.);
#328=AXIS2_PLACEMENT_3D('placement',#494,#380,#381);
#329=AXIS2_PLACEMENT_3D('',#495,#382,#383);
#330=AXIS2_PLACEMENT_3D('',#498,#384,#385);
#331=AXIS2_PLACEMENT_3D('',#500,#386,#387);
#332=AXIS2_PLACEMENT_3D('',#504,#389,#390);
#333=AXIS2_PLACEMENT_3D('',#505,#391,#392);
#334=AXIS2_PLACEMENT_3D('',#506,#393,#394);
#335=AXIS2_PLACEMENT_3D('',#507,#395,#396);
#336=AXIS2_PLACEMENT_3D('',#510,#397,#398);
#337=AXIS2_PLACEMENT_3D('',#511,#399,#400);
#338=AXIS2_PLACEMENT_3D('',#512,#401,#402);
#339=AXIS2_PLACEMENT_3D('',#513,#403,#404);
#340=AXIS2_PLACEMENT_3D('',#516,#405,#406);
#341=AXIS2_PLACEMENT_3D('',#517,#407,#408);
#342=AXIS2_PLACEMENT_3D('',#518,#409,#410);
#343=AXIS2_PLACEMENT_3D('',#521,#411,#412);
#344=AXIS2_PLACEMENT_3D('',#522,#413,#414);
#345=AXIS2_PLACEMENT_3D('',#524,#416,#417);
#346=AXIS2_PLACEMENT_3D('',#527,#418,#419);
#347=AXIS2_PLACEMENT_3D('',#528,#420,#421);
#348=AXIS2_PLACEMENT_3D('',#530,#423,#424);
#349=AXIS2_PLACEMENT_3D('',#531,#425,#426);
#350=AXIS2_PLACEMENT_3D('',#536,#428,#429);
#351=AXIS2_PLACEMENT_3D('',#537,#430,#431);
#352=AXIS2_PLACEMENT_3D('',#538,#432,#433);
#353=AXIS2_PLACEMENT_3D('',#541,#434,#435);
#354=AXIS2_PLACEMENT_3D('',#542,#436,#437);
#355=AXIS2_PLACEMENT_3D('',#544,#439,#440);
#356=AXIS2_PLACEMENT_3D('',#548,#442,#443);
#357=AXIS2_PLACEMENT_3D('',#549,#444,#445);
#358=AXIS2_PLACEMENT_3D('',#550,#446,#447);
#359=AXIS2_PLACEMENT_3D('',#553,#448,#449);
#360=AXIS2_PLACEMENT_3D('',#554,#450,#451);
#361=AXIS2_PLACEMENT_3D('',#555,#452,#453);
#362=AXIS2_PLACEMENT_3D('',#558,#454,#455);
#363=AXIS2_PLACEMENT_3D('',#559,#456,#457);
#364=AXIS2_PLACEMENT_3D('',#561,#459,#460);
#365=AXIS2_PLACEMENT_3D('',#564,#461,#462);
#366=AXIS2_PLACEMENT_3D('',#566,#463,#464);
#367=AXIS2_PLACEMENT_3D('',#568,#466,#467);
#368=AXIS2_PLACEMENT_3D('',#569,#468,#469);
#369=AXIS2_PLACEMENT_3D('',#572,#470,#471);
#370=AXIS2_PLACEMENT_3D('',#574,#472,#473);
#371=AXIS2_PLACEMENT_3D('',#575,#474,#475);
#372=AXIS2_PLACEMENT_3D('',#576,#476,#477);
#373=AXIS2_PLACEMENT_3D('',#577,#478,#479);
#374=AXIS2_PLACEMENT_3D('',#580,#480,#481);
#375=AXIS2_PLACEMENT_3D('',#581,#482,#483);
#376=AXIS2_PLACEMENT_3D('',#583,#485,#486);
#377=AXIS2_PLACEMENT_3D('',#587,#488,#489);
#378=AXIS2_PLACEMENT_3D('',#588,#490,#491);
#379=AXIS2_PLACEMENT_3D('',#589,#492,#493);
#380=DIRECTION('axis',(0.,0.,1.));
#381=DIRECTION('refdir',(1.,0.,0.));
#382=DIRECTION('center_axis',(0.,1.,0.));
#383=DIRECTION('ref_axis',(-1.,0.,0.));
#384=DIRECTION('center_axis',(0.,1.,0.));
#385=DIRECTION('ref_axis',(-1.,0.,0.));
#386=DIRECTION('center_axis',(0.,1.,0.));
#387=DIRECTION('ref_axis',(-1.,0.,0.));
#388=DIRECTION('',(0.,-1.,0.));
#389=DIRECTION('center_axis',(0.,1.,0.));
#390=DIRECTION('ref_axis',(-1.,0.,0.));
#391=DIRECTION('center_axis',(0.,1.,0.));
#392=DIRECTION('ref_axis',(-1.,0.,0.));
#393=DIRECTION('center_axis',(0.,1.,0.));
#394=DIRECTION('ref_axis',(-1.,0.,0.));
#395=DIRECTION('center_axis',(0.,1.,0.));
#396=DIRECTION('ref_axis',(0.,0.,-1.));
#397=DIRECTION('center_axis',(0.,1.,0.));
#398=DIRECTION('ref_axis',(-1.,0.,0.));
#399=DIRECTION('center_axis',(0.,1.,0.));
#400=DIRECTION('ref_axis',(-1.,0.,0.));
#401=DIRECTION('center_axis',(1.,0.,-1.22464679914735E-16));
#402=DIRECTION('ref_axis',(1.22464679914735E-16,0.,1.));
#403=DIRECTION('center_axis',(0.,1.,0.));
#404=DIRECTION('ref_axis',(0.,0.,-1.));
#405=DIRECTION('center_axis',(0.,1.,0.));
#406=DIRECTION('ref_axis',(-1.,0.,0.));
#407=DIRECTION('center_axis',(0.,1.,0.));
#408=DIRECTION('ref_axis',(-1.,0.,0.));
#409=DIRECTION('center_axis',(0.,1.,0.));
#410=DIRECTION('ref_axis',(-1.,0.,0.));
#411=DIRECTION('center_axis',(0.,1.,0.));
#412=DIRECTION('ref_axis',(-1.,0.,0.));
#413=DIRECTION('center_axis',(0.,1.,0.));
#414=DIRECTION('ref_axis',(-1.,0.,0.));
#415=DIRECTION('',(0.707106781186527,0.707106781186568,-8.65956056235469E-17));
#416=DIRECTION('center_axis',(0.,1.,0.));
#417=DIRECTION('ref_axis',(-1.,0.,0.));
#418=DIRECTION('center_axis',(0.,1.,0.));
#419=DIRECTION('ref_axis',(-1.,0.,0.));
#420=DIRECTION('center_axis',(0.,1.,0.));
#421=DIRECTION('ref_axis',(-1.,0.,0.));
#422=DIRECTION('',(0.,1.,0.));
#423=DIRECTION('center_axis',(0.,1.,0.));
#424=DIRECTION('ref_axis',(0.,0.,-1.));
#425=DIRECTION('center_axis',(0.,-1.,0.));
#426=DIRECTION('ref_axis',(-1.,0.,0.));
#427=DIRECTION('',(0.882947592858925,-0.469471562785895,1.08129894340954E-16));
#428=DIRECTION('center_axis',(0.,1.,0.));
#429=DIRECTION('ref_axis',(-1.,0.,0.));
#430=DIRECTION('center_axis',(0.,1.,0.));
#431=DIRECTION('ref_axis',(-1.,0.,0.));
#432=DIRECTION('center_axis',(0.,1.,0.));
#433=DIRECTION('ref_axis',(-1.,0.,0.));
#434=DIRECTION('center_axis',(0.,1.,0.));
#435=DIRECTION('ref_axis',(-1.,0.,0.));
#436=DIRECTION('center_axis',(0.,1.,0.));
#437=DIRECTION('ref_axis',(-1.,0.,0.));
#438=DIRECTION('',(0.,1.,0.));
#439=DIRECTION('center_axis',(0.,-1.,0.));
#440=DIRECTION('ref_axis',(-1.,0.,0.));
#441=DIRECTION('',(0.558185850632024,-0.829715949077878,6.83580515305851E-17));
#442=DIRECTION('center_axis',(0.,1.,0.));
#443=DIRECTION('ref_axis',(-1.,0.,0.));
#444=DIRECTION('center_axis',(0.,1.,0.));
#445=DIRECTION('ref_axis',(-1.,0.,0.));
#446=DIRECTION('center_axis',(-9.6131799728575E-16,-1.,0.));
#447=DIRECTION('ref_axis',(0.,0.,1.));
#448=DIRECTION('center_axis',(0.,1.,0.));
#449=DIRECTION('ref_axis',(-1.,0.,0.));
#450=DIRECTION('center_axis',(0.,1.,0.));
#451=DIRECTION('ref_axis',(-1.,0.,0.));
#452=DIRECTION('center_axis',(0.,1.,0.));
#453=DIRECTION('ref_axis',(-1.,0.,0.));
#454=DIRECTION('center_axis',(0.,1.,0.));
#455=DIRECTION('ref_axis',(-1.,0.,0.));
#456=DIRECTION('center_axis',(0.,1.,0.));
#457=DIRECTION('ref_axis',(-1.,0.,0.));
#458=DIRECTION('',(-0.707106781186537,-0.707106781186558,8.6595605623548E-17));
#459=DIRECTION('center_axis',(0.,1.,0.));
#460=DIRECTION('ref_axis',(-1.,0.,0.));
#461=DIRECTION('center_axis',(0.,1.,0.));
#462=DIRECTION('ref_axis',(-1.,0.,0.));
#463=DIRECTION('center_axis',(0.,1.,0.));
#464=DIRECTION('ref_axis',(-1.,0.,0.));
#465=DIRECTION('',(0.,-1.,0.));
#466=DIRECTION('center_axis',(0.,1.,0.));
#467=DIRECTION('ref_axis',(-1.,0.,0.));
#468=DIRECTION('center_axis',(0.,1.,0.));
#469=DIRECTION('ref_axis',(0.,0.,-1.));
#470=DIRECTION('center_axis',(0.,1.,0.));
#471=DIRECTION('ref_axis',(-1.,0.,0.));
#472=DIRECTION('center_axis',(0.,1.,0.));
#473=DIRECTION('ref_axis',(-1.,0.,0.));
#474=DIRECTION('center_axis',(0.,1.,0.));
#475=DIRECTION('ref_axis',(-1.,0.,0.));
#476=DIRECTION('center_axis',(-1.,0.,1.22464679914735E-16));
#477=DIRECTION('ref_axis',(1.22464679914735E-16,0.,1.));
#478=DIRECTION('center_axis',(0.,1.,0.));
#479=DIRECTION('ref_axis',(-1.,0.,0.));
#480=DIRECTION('center_axis',(0.,1.,0.));
#481=DIRECTION('ref_axis',(-1.,0.,0.));
#482=DIRECTION('center_axis',(0.,1.,0.));
#483=DIRECTION('ref_axis',(-1.,0.,0.));
#484=DIRECTION('',(0.,-1.,0.));
#485=DIRECTION('center_axis',(0.,-1.,0.));
#486=DIRECTION('ref_axis',(-1.,0.,0.));
#487=DIRECTION('',(-0.707106781186612,0.707106781186483,-8.65956056235572E-17));
#488=DIRECTION('center_axis',(0.,1.,0.));
#489=DIRECTION('ref_axis',(-1.,0.,0.));
#490=DIRECTION('center_axis',(0.,1.,0.));
#491=DIRECTION('ref_axis',(-1.,0.,0.));
#492=DIRECTION('center_axis',(0.,1.,0.));
#493=DIRECTION('ref_axis',(0.,0.,-1.));
#494=CARTESIAN_POINT('',(0.,0.,0.));
#495=CARTESIAN_POINT('Origin',(0.,58.1286174020784,0.));
#496=CARTESIAN_POINT('',(-6.,62.8786174020784,0.));
#497=CARTESIAN_POINT('',(7.34788079488412E-16,62.8786174020784,6.));
#498=CARTESIAN_POINT('Origin',(0.,62.8786174020784,0.));
#499=CARTESIAN_POINT('',(6.,62.8786174020784,-7.34788079488412E-16));
#500=CARTESIAN_POINT('Origin',(0.,62.8786174020784,0.));
#501=CARTESIAN_POINT('',(6.,52.3786174020784,-7.34788079488412E-16));
#502=CARTESIAN_POINT('',(6.,58.1286174020784,-7.34788079488412E-16));
#503=CARTESIAN_POINT('',(-6.,52.3786174020784,0.));
#504=CARTESIAN_POINT('Origin',(0.,52.3786174020784,0.));
#505=CARTESIAN_POINT('Origin',(0.,52.3786174020784,0.));
#506=CARTESIAN_POINT('Origin',(0.,62.8786174020784,0.));
#507=CARTESIAN_POINT('Origin',(0.,62.8786174020784,0.));
#508=CARTESIAN_POINT('',(-5.5,63.3786174020784,0.));
#509=CARTESIAN_POINT('',(6.73555739531044E-16,63.3786174020784,5.5));
#510=CARTESIAN_POINT('Origin',(0.,63.3786174020784,0.));
#511=CARTESIAN_POINT('Origin',(0.,63.3786174020784,0.));
#512=CARTESIAN_POINT('Origin',(6.73555739531044E-16,62.8786174020784,5.5));
#513=CARTESIAN_POINT('Origin',(-4.07943049073219,63.3786174020784,0.));
#514=CARTESIAN_POINT('',(-2.65886098146439,63.3786174020784,0.));
#515=CARTESIAN_POINT('',(2.65886098146439,63.3786174020784,-3.25616559032816E-16));
#516=CARTESIAN_POINT('Origin',(0.,63.3786174020784,0.));
#517=CARTESIAN_POINT('Origin',(0.,63.3786174020784,0.));
#518=CARTESIAN_POINT('Origin',(0.,63.3491869113462,0.));
#519=CARTESIAN_POINT('',(-2.6,63.319756420614,0.));
#520=CARTESIAN_POINT('',(2.6,63.319756420614,-3.18408167778312E-16));
#521=CARTESIAN_POINT('Origin',(0.,63.319756420614,0.));
#522=CARTESIAN_POINT('Origin',(0.,63.319756420614,0.));
#523=CARTESIAN_POINT('',(2.62943049073219,63.3491869113462,-3.22012363405563E-16));
#524=CARTESIAN_POINT('Origin',(0.,41.9741869113462,0.));
#525=CARTESIAN_POINT('',(-2.60000000001108,20.6286174020784,0.));
#526=CARTESIAN_POINT('',(2.60000000000554,20.6286174020784,-3.1840816777899E-16));
#527=CARTESIAN_POINT('Origin',(0.,20.6286174020784,0.));
#528=CARTESIAN_POINT('Origin',(0.,20.6286174020784,0.));
#529=CARTESIAN_POINT('',(2.60000000000554,41.9741869113462,-3.1840816777899E-16));
#530=CARTESIAN_POINT('Origin',(-1.30000000000554,20.6286174020784,0.));
#531=CARTESIAN_POINT('Origin',(0.,18.6873951409185,0.));
#532=CARTESIAN_POINT('',(0.,19.3786174020784,0.));
#533=CARTESIAN_POINT('',(2.60000000000003,17.9961728797586,3.18408167778315E-16));
#534=CARTESIAN_POINT('',(1.3,18.6873951409185,1.59204083889156E-16));
#535=CARTESIAN_POINT('',(-2.6,17.9961728797585,0.));
#536=CARTESIAN_POINT('Origin',(0.,17.9961728797585,0.));
#537=CARTESIAN_POINT('Origin',(0.,17.9961728797585,0.));
#538=CARTESIAN_POINT('Origin',(0.,15.8069251680465,0.));
#539=CARTESIAN_POINT('',(-2.6,13.6176774563345,0.));
#540=CARTESIAN_POINT('',(2.6,13.6176774563345,-3.18408167778312E-16));
#541=CARTESIAN_POINT('Origin',(0.,13.6176774563345,0.));
#542=CARTESIAN_POINT('Origin',(0.,13.6176774563345,0.));
#543=CARTESIAN_POINT('',(2.6,15.8069251680465,-3.18408167778312E-16));
#544=CARTESIAN_POINT('Origin',(0.,13.4981474292064,0.));
#545=CARTESIAN_POINT('',(2.76082605123518,13.3786174020784,3.38103678664779E-16));
#546=CARTESIAN_POINT('',(2.6804130256176,13.4981474292064,3.28255923221547E-16));
#547=CARTESIAN_POINT('',(-2.7608260512352,13.3786174020784,0.));
#548=CARTESIAN_POINT('Origin',(0.,13.3786174020784,0.));
#549=CARTESIAN_POINT('Origin',(0.,13.3786174020784,0.));
#550=CARTESIAN_POINT('Origin',(-7.3804130256176,13.3786174020784,0.));
#551=CARTESIAN_POINT('',(-12.,13.3786174020784,0.));
#552=CARTESIAN_POINT('',(12.,13.3786174020784,-1.46957615897682E-15));
#553=CARTESIAN_POINT('Origin',(0.,13.3786174020784,0.));
#554=CARTESIAN_POINT('Origin',(0.,13.3786174020784,0.));
#555=CARTESIAN_POINT('Origin',(0.,13.6286174020784,0.));
#556=CARTESIAN_POINT('',(-12.5,13.8786174020784,0.));
#557=CARTESIAN_POINT('',(12.5,13.8786174020784,-1.53080849893419E-15));
#558=CARTESIAN_POINT('Origin',(0.,13.8786174020784,0.));
#559=CARTESIAN_POINT('Origin',(0.,13.8786174020784,0.));
#560=CARTESIAN_POINT('',(12.25,13.6286174020784,-1.50019232895551E-15));
#561=CARTESIAN_POINT('Origin',(0.,29.1286174020784,0.));
#562=CARTESIAN_POINT('',(-12.5,43.3786174020784,0.));
#563=CARTESIAN_POINT('',(1.53080849893419E-15,43.3786174020784,12.5));
#564=CARTESIAN_POINT('Origin',(0.,43.3786174020784,0.));
#565=CARTESIAN_POINT('',(12.5,43.3786174020784,-1.53080849893419E-15));
#566=CARTESIAN_POINT('Origin',(0.,43.3786174020784,0.));
#567=CARTESIAN_POINT('',(12.5,29.1286174020784,-1.53080849893419E-15));
#568=CARTESIAN_POINT('Origin',(0.,43.3786174020784,0.));
#569=CARTESIAN_POINT('Origin',(0.,44.3786174020784,0.));
#570=CARTESIAN_POINT('',(-12.5,45.3786174020784,0.));
#571=CARTESIAN_POINT('',(1.53080849893419E-15,45.3786174020784,12.5));
#572=CARTESIAN_POINT('Origin',(0.,45.3786174020784,0.));
#573=CARTESIAN_POINT('',(12.5,45.3786174020784,-1.53080849893419E-15));
#574=CARTESIAN_POINT('Origin',(0.,45.3786174020784,0.));
#575=CARTESIAN_POINT('Origin',(0.,45.3786174020784,0.));
#576=CARTESIAN_POINT('Origin',(1.53080849893419E-15,44.3786174020784,12.5));
#577=CARTESIAN_POINT('Origin',(0.,49.1286174020784,0.));
#578=CARTESIAN_POINT('',(-12.5,51.8786174020784,0.));
#579=CARTESIAN_POINT('',(12.5,51.8786174020784,-1.53080849893419E-15));
#580=CARTESIAN_POINT('Origin',(0.,51.8786174020784,0.));
#581=CARTESIAN_POINT('Origin',(0.,51.8786174020784,0.));
#582=CARTESIAN_POINT('',(12.5,49.1286174020784,-1.53080849893419E-15));
#583=CARTESIAN_POINT('Origin',(0.,52.1286174020784,0.));
#584=CARTESIAN_POINT('',(12.,52.3786174020783,1.46957615897683E-15));
#585=CARTESIAN_POINT('',(12.25,52.1286174020784,1.50019232895551E-15));
#586=CARTESIAN_POINT('',(-12.,52.3786174020783,0.));
#587=CARTESIAN_POINT('Origin',(0.,52.3786174020783,0.));
#588=CARTESIAN_POINT('Origin',(0.,52.3786174020783,0.));
#589=CARTESIAN_POINT('Origin',(-8.,52.3786174020784,0.));
#590=UNCERTAINTY_MEASURE_WITH_UNIT(LENGTH_MEASURE(0.01),#594,
'DISTANCE_ACCURACY_VALUE',
'Maximum model space distance between geometric entities at asserted c
onnectivities');
#591=UNCERTAINTY_MEASURE_WITH_UNIT(LENGTH_MEASURE(0.01),#594,
'DISTANCE_ACCURACY_VALUE',
'Maximum model space distance between geometric entities at asserted c
onnectivities');
#592=(
GEOMETRIC_REPRESENTATION_CONTEXT(3)
GLOBAL_UNCERTAINTY_ASSIGNED_CONTEXT((#590))
GLOBAL_UNIT_ASSIGNED_CONTEXT((#594,#596,#597))
REPRESENTATION_CONTEXT('','3D')
);
#593=(
GEOMETRIC_REPRESENTATION_CONTEXT(3)
GLOBAL_UNCERTAINTY_ASSIGNED_CONTEXT((#591))
GLOBAL_UNIT_ASSIGNED_CONTEXT((#594,#596,#597))
REPRESENTATION_CONTEXT('','3D')
);
#594=(
LENGTH_UNIT()
NAMED_UNIT(*)
SI_UNIT(.MILLI.,.METRE.)
);
#595=(
LENGTH_UNIT()
NAMED_UNIT(*)
SI_UNIT(.CENTI.,.METRE.)
);
#596=(
NAMED_UNIT(*)
PLANE_ANGLE_UNIT()
SI_UNIT($,.RADIAN.)
);
#597=(
NAMED_UNIT(*)
SI_UNIT($,.STERADIAN.)
SOLID_ANGLE_UNIT()
);
#598=SHAPE_DEFINITION_REPRESENTATION(#599,#600);
#599=PRODUCT_DEFINITION_SHAPE('',$,#602);
#600=SHAPE_REPRESENTATION('',(#328),#592);
#601=DESIGN_CONTEXT('part definition',#606,'design');
#602=PRODUCT_DEFINITION('E_00200_010_A','E_00200_010_A',#603,#601);
#603=PRODUCT_DEFINITION_FORMATION(
'PRODUCT_VERSION_IDPRODUCT_VERSION_DESCR',$,#608);
#604=PRODUCT_RELATED_PRODUCT_CATEGORY('E_00200_010_A','E_00200_010_A',(#608));
#605=APPLICATION_PROTOCOL_DEFINITION('international standard',
'ap203_configuration_controlled_3d_design_of_mechanical_parts_and_asse
mblies_mim_lf',2004,#606);
#606=APPLICATION_CONTEXT(
'Configuration Controlled 3D Design of Mechanical Parts and Assemblies');
#607=MECHANICAL_CONTEXT('part definition',#606,'mechanical');
#608=PRODUCT('E_00200_010_A','E_00200_010_A','Alibre Inc.',(#607));
#609=PRESENTATION_STYLE_ASSIGNMENT((#611));
#610=PRESENTATION_STYLE_ASSIGNMENT((#612));
#611=SURFACE_STYLE_USAGE(.BOTH.,#617);
#612=SURFACE_STYLE_USAGE(.BOTH.,#618);
#613=SURFACE_STYLE_RENDERING_WITH_PROPERTIES($,#625,(#615));
#614=SURFACE_STYLE_RENDERING_WITH_PROPERTIES($,#626,(#616));
#615=SURFACE_STYLE_TRANSPARENT(0.);
#616=SURFACE_STYLE_TRANSPARENT(1.);
#617=SURFACE_SIDE_STYLE('',(#619,#613));
#618=SURFACE_SIDE_STYLE('',(#620,#614));
#619=SURFACE_STYLE_FILL_AREA(#621);
#620=SURFACE_STYLE_FILL_AREA(#622);
#621=FILL_AREA_STYLE('',(#623));
#622=FILL_AREA_STYLE('',(#624));
#623=FILL_AREA_STYLE_COLOUR('',#625);
#624=FILL_AREA_STYLE_COLOUR('',#626);
#625=COLOUR_RGB('',0.749019607843137,0.749019607843137,0.749019607843137);
#626=COLOUR_RGB('',0.749019607843137,0.749019607843137,0.749019607843137);
ENDSEC;
END-ISO-10303-21;
